PrimaNota.ru - самый крупный в мире бесплатный архив песенных текстов, аккордов, табулатур и нот


Nothingface - Self Punishment - текст песни, таба, видео

Регистрация Запомнить меня
Войти через:  Facebook Google Twitter Vk Yandex Mail.ru

Nothingface - Self Punishment - текст песни, таба, видео

Печатать
Просмотров: 87
Song: "Self Punishment"
Artist: Nothingface
Album: Pacifier
Transcribed By: Bryan Bramlett (bryanmb87@aol.com)

Tuning: 1/2 Step Down, Drop D

BRIDGE: (w/ effect)
|--------------------------------------------------------------|
|--------------------------------------------------------------|
|--------------------------------------------------------------|
|-0------------4-------------------------------4-----------5-1-|
|-0-5-3----------3--5-3--------5----5-3----------3--5-3-XX-5-1-|
|-0-----XX-5-3----------XX-5-3---6------XX-5-3----------XX-5-1-|

FILL:
|-----------|
|-----------|
|-----------|
|-1-1-1-1-1-|
|-1-1-1-1-1-|
|-1-1-1-1-1-|

VERSE:
|-----------------------------------------------|
|-----------------------------------------------|
|-----------------------------------------------|
|-0-0--XX5-1-0-0-XX5-1-0-------XX5-1-6-6-333555-|
|-0-0--XX5-1-0-0-XX5-1-0-5-4-3-XX5-1-6-6-333555-|
|-0-0--XX5-1-0-0-XX5-1-0-------XX5-1-6-6-333555-|

CHORUS:
|---------------------------------------|
|---------------------------------------|
|---------------------------------------|
|-5------8-7-7----7--5------8-7-7-------|
|-3-1-XX-6-5-5-XX-5--3-1-XX-6-5-5-------|
|---1-XX-------XX------1-XX-------6-5-3-|

FILL:
|---|
|---|
|---|
|-5-|
|-5-|
|-5-|

INTERLUDE:
|-------------------------------|
|-------------------------------|
|-------------------------------|
|-------------------------------|
|-0h3h5-0h3h5-0h3h5-0h5h6-0h5h6-|
|-0h3h5-0h3h5-0h3h5-0h5h6-0h5h6-|

INTERLUDE 2:
|-------------------------------|
|-------------------------------|
|-------------------------------|
|-0-----------------0-------5-1-|
|-0-5-4-3--6-5h6p5--0-5-4-3-5-1-|
|-0-----------------0-------5-1-|
Добавлено: 04.12.2013
Другие материалы по этой песне:
  • Аккорды и текст

Страница создана 22.02.2012
http://primanota.ru/nothingface/self-punishment-chords.htm
Привет, Гость.
Предлагаем пройти революционный курс по гитаре.
Подарок от PrimaNota.Ru, забирай!