PrimaNota.ru - самый крупный в мире бесплатный архив песенных текстов, аккордов, табулатур и нот


Nothingface - Same Solution - текст песни, таба, видео

Регистрация Запомнить меня
Войти через:  Facebook Google Twitter Vk Yandex Mail.ru

Nothingface - Same Solution - текст песни, таба, видео

Печатать
Просмотров: 89
nothingface
same solution
violence
d-flat


verse

Eb|-----------------------------------------------------------------------|
Bb|-----------------------------------------------------------------------|
Gb|-----------------------------------------------------------------------|
Db|-222-111-0055--222-333-0055-0055--222-111-0055--222-333-0055-0055-0055-|
Ab|-222-111-0055--222-333-0055-0055--222-111-0055--222-333-0055-0055-0055-|
DB|-222-111-0055--222-333-0055-0055--222-111-0055--222-333-0055-0055-0055-|

pre-chorus

Eb|-------------------------------------|
Bb|-------------------------------------|
Gb|-------------------------------------|
Db|-2--2---3--3--3-3--5--5---6--6--6666-|
Ab|-2--2---3--3--3-3--5--5---6--6--6666-|
Db|-222222-3333333333-555555-6666666666-|
     -- --  -- -- - -  -- --  -- -- 

chorus

Eb|-----------------------------------------------|
Bb|-----------------------------------------------|
Gb|-----------------------------------------------|
Db|-3222-5222-6222-5222--2-22-3-22--XX-5/7-XX-7/8-|
Ab|-3222-5222-6222-5222--2-22-3-22--XX-5/7-XX-7/8-|
Db|-3222-5222-6222-5222--2-22-3-22--XX-5/7-XX-7/8-|

Eb|-----------------------------------------------|
Bb|-----------------------------------------------|
Gb|-----------------------------------------------|
Db|-322-522-622-522-3222-2-22-3-22--XX-5/7-XX-7/8_|
Ab|-322-522-622-522-3222-2-22-3-22--XX-5/7-XX-7/8-|
Db|-322-522-622-522-3222-2-22-3-22--XX-5/7-XX-7/8-|

post chorus

Eb|----------------------------------|
Bb|----------------------------------|
Gb|----------------------------------|
Db|-7777777777777777-888888-55-88-77-|
Ab|-7777777777777777-888888-55-88-77-|
Db|-7777777777777777-888888-55-88-77-|

bridge

Eb|---------------------------------------------------------|
Bb|---------------------------------------------------------|
Gb|---------------------------------------------------------|
Db|---------------------------------------------------------|
Ab|---------------------------------------------------0-1-4-|
Db|-2222222222222222222222222222-023-2222222222222222-0-1-4-|

interlude

Eb|-----------------------------------------|
Bb|-----------------------------------------|
Gb|-----------------------------------------|
Db|-7-7-7-7-8-8-8-8-10-10-10-10-12-12-12-12-|
AB|-7-7-7-7-8-8-8-8-10-10-10-10-12-12-12-12-|
Db|-7-7-7-7-8-8-8-8-10-10-10-10-12-12-12-12-|

outtro

Eb|----------------------------------------------------------------|
Bb|----------------------------------------------------------------|
Gb|----------------------------------------------------------------|
Db|-7-7-7-8-8-8-7-7-7-8-8-8-4-4-4-4-3-3-3-3-3-3-6-6----------------|
AB|-5-5-5-6-6-6-7-7-7-8-8-8-4-4-4-4-3-3-3-3-3-3-4-4--7-7-8-8-10-10-|
Db|-------------7-7-7-8-8-8-4-4-4-4-3-3-3-3-3-3------7-7-8-8-10-10-|

Добавлено: 03.12.2013
Другие материалы по этой песне:
  • Аккорды и текст

Страница создана 27.04.2012
http://primanota.ru/nothingface/same-solution-chords.htm
Привет, Гость.
Предлагаем пройти революционный курс по гитаре.
Подарок от PrimaNota.Ru, забирай!