PrimaNota.ru - самый крупный в мире бесплатный архив песенных текстов, аккордов, табулатур и нот


Nothingface - Piss & Vinegar - текст песни, таба, видео

Регистрация Запомнить меня
Войти через:  Facebook Google Twitter Vk Yandex Mail.ru

Nothingface - Piss & Vinegar - текст песни, таба, видео

Печатать
Просмотров: 74
Song: "Piss & Vinegar"
Artist: Nothingface
Album: Violence
Transcribed By: Bryan Bramlett (bryanmb87@aol.com)

Tuning: Drop D, 1/2 Step Down

INTRO:
|------------------------------|
|------------------------------|
|------------------------------|
|-7-7-7-6-6-6-3-3-3-4-4-4-6--6-|
|-7-7-7-6-6-6-3-3-3-4-4-4-6--6-|
|-7-7-7-6-6-6-3-3-3-4-4-4-6--6-|

VERSE: (palm muting changes throughout song, listen for changes)
|--------------------------------------------------------|
|--------------------------------------------------------|
|--------------------------------------------------------|
|-6-0-6-0--0-6-0-6-0--0-6-7-6-0--6-0-6-0--0-6-0-33335555-|
|-6-0-6-0--0-6-0-6-0--0-6-7-6-0--6-0-6-0--0-6-0-33335555-|
|-6-0-6-0--0-6-0-6-0--0-6-7-6-0--6-0-6-0--0-6-0-33335555-|
PM. . . .  . . . . .  . . . . .  . . . .  . . .

|------------------------------------------------------|
|------------------------------------------------------|
|------------------------------------------------------|
|-6-0-6-0--0-6-0-6-0--0-6-7-6-0--6-0-6-0--0-6-0-XX-XXX-|
|-6-0-6-0--0-6-0-6-0--0-6-7-6-0--6-0-6-0--0-6-0-XX-XXX-|
|-6-0-6-0--0-6-0-6-0--0-6-7-6-0--6-0-6-0--0-6-0-XX-XXX-|
PM. . . .  . . . . .  . . . . .  . . . .  . . .

|--------------------------------------------------------|
|--------------------------------------------------------|
|--------------------------------------------------------|
|-6-0-6-0--0-6-0-6-0--0-6-7-6-0--6-0-6-0--0-6-0-33335555-|
|-6-0-6-0--0-6-0-6-0--0-6-7-6-0--6-0-6-0--0-6-0-33335555-|
|-6-0-6-0--0-6-0-6-0--0-6-7-6-0--6-0-6-0--0-6-0-33335555-|
PM. . . .  . . . . .  . . . . .  . . . .  . . . 

|-------------------------------------------------------------|
|-------------------------------------------------------------|
|-------------------------------------------------------------|
|-6-0-6-0--0-6-0-6-0--0-6-7-6-0--7-7-7-6-6-6-3-3-3-4-4-4-6--6-|
|-6-0-6-0--0-6-0-6-0--0-6-7-6-0--7-7-7-6-6-6-3-3-3-4-4-4-6--6-|
|-6-0-6-0--0-6-0-6-0--0-6-7-6-0--7-7-7-6-6-6-3-3-3-4-4-4-6--6-|
PM. . . .  . . . . .  . . . . .

FILL:
|-------------------------------|
|-------------------------------|
|-------------------------------|
|-------------------------------|
|---------5-5-5-------2-2-------|
|-6-6-6-6-------3-3-3-----4-4-4-|

CHORUS:
|-------------------------------------------------------------|
|-------------------------------------------------------------|
|---7775558888-----77755588810-----7775558888-----------------|
|-0-7775558888-0-0-77755588810-0-0-7775558888-7776663334446-6-|
|-0-5553336666-0-0-555333666-8-0-0-5553336666-7776663334446-6-|
|-0------------0-0-------------0-0------------7776663334446-6-|

INTERLUDE: (palm mute)
|--------------------------------|
|--------------------------------|
|--------------------------------|
|--------------------------------|
|--------------------------------|
|-2-3-2-0-2-0-0-2--0-2-3-2-0-0-0-|

INTERLUDE 2:
|--------------------------------|
|--------------------------------|
|--------------------------------|
|-2-3-2-0-2-0-0-2--0-2-3-2-0-2-0-|
|-2-3-2-0-2-0-0-2--0-2-3-2-0-2-0-|
|-2-3-2-0-2-0-0-2--0-2-3-2-0-2-0-|

BRIDGE:
|---------------------------------------|
|---------------------------------------|
|-7777777788885555-77777777888812121111-|
|-XXXXXXXXXXXXXXXX-XXXXXXXXXXXX-X-X-X-X-|
|-5555555566663333-5555555566661010-9-9-|
|---------------------------------------|

|-----------------------------------------------------|
|-----------------------------------------------------|
|-7777777788885555-7777141313131313131313/14-9-11--12-|
|-XXXXXXXXXXXXXXXX-XXXX-X-X-X-X-X-X-X-X-X--X-X--X---X-|
|-5555555566663333-5555121111111111111111/12-7--9--10-|
|-----------------------------------------------------|

OUTRO:
|-------------------|
|-------------------|
|---------77755-----|
|-6\-00-0-XXXXX-3-5-|
|-6\-00-0-55533-3-5-|
|-6\-00-0-------3-5-|
PM   .. .
Добавлено: 30.06.2013
Другие материалы по этой песне:
  • Аккорды и текст

Страница создана 30.06.2013
http://primanota.ru/nothingface/piss-and-vinegar-chords.htm
Привет, Гость.
Предлагаем пройти революционный курс по гитаре.
Подарок от PrimaNota.Ru, забирай!