PrimaNota.ru - самый крупный в мире бесплатный архив песенных текстов, аккордов, табулатур и нот


Nothingface - Murder Is Masturbation - текст песни, таба, видео

Регистрация Запомнить меня
Войти через:  Facebook Google Twitter Vk Yandex Mail.ru

Nothingface - Murder Is Masturbation - текст песни, таба, видео

Печатать
Просмотров: 153
intro   (x4)                 (x4)
e(----------------------)(--------------------)(---------------------)
b(----------------------)(--------------------)(---------------------)
g(----------------------)(--------------------)(---------------------)
d(--8-------------88888-)(-----------87678776-)(--876787767877678776-)
a(--6-66666666666666666-)(-----------87678776-)(--876787767877678776-)
D(----------------------)(--77777777-87678776-)(--876787767877678776-)
    pm............          ........

chorus
e(----------------------------------------------)
b(----------------------------------------------)
g(--4/5-5-5544-4/5-5-6677-4/5-5-5544-4/5-5-66-7-)
d(--4/5-5-5544-4/5-5-6677-4/5-5-5544-4/5-5-66-7-)
a(--2/3-3-3322-2/3-3-4455-2/3-3-3322-2/3-3-44-5-)
D(----------------------------------------------)
                                         pm..
chorus continued
e(-----------------------------------------------------------)
b(-----------------------------------------------------------)
g(--4/5-5-5544-4/5-5-6677-4/5-5-5-5544-4/5-5-1010-44-4/5-7/6-)
d(--4/5-5-5544-4/5-5-6677-4/5-5-5-5544-4/5-5-1010-44-4/5-7/6-)
a(--2/3-3-3322-2/3-3-4455-2/3-3-3-3322-2/3-3--8-8-22-2/3-5/4-)
D(-----------------------------------------------------------)

verse
e(---------)
b(---------)
g(---------)
d(--88-897-)
a(--88-897-)
D(--88-897-)

verse(lead)
e(----------------------)
b(--5---5-5/8-5---5-5/8-)
g(----8---------8-------)
d(----------------------)
a(----------------------)
D(----------------------)

solo
e(-----------------------------------------------)
b(------------------------11-10-10-10-11-11-11/0-)
g(--7/8-8-8888-8/10-10-10------------------------)
d(-----------------------------------------------)
a(-----------------------------------------------)
D(-----------------------------------------------)

solo continued
e(-------------------------------------------)
b(------------------------11-10-11-11-10-5-6-)
g(--7/8-8-8888-8/10-10-10--------------------)
d(-------------------------------------------)
a(-------------------------------------------)
D(-------------------------------------------)

bridge
e(--------------------------------------------------)
b(--------------------------------------------------)
g(--------------------------------------------------)
d(----------------------------------------6---------)
a(----0---1---0---1---0---1---0---1---6-------6---5-)
D(--3---3---3---3---2---2---2---2---0---0---0---0---)

bridge continued
e(----------------------------------------------)
b(----------------------------------------------)
g(----------------------------------------------)
d(--1010101010101010-55555555-66666666-66666666-)
a(---8-8-8-8-8-8-8-8-33333333-44444444-44444444-)
D(---8-8-8-8-8-8-8-8-33333333-44444444-44444444-)
Добавлено: 10.06.2013
Другие материалы по этой песне:
  • Аккорды и текст

Страница создана 29.04.2012
http://primanota.ru/nothingface/murder-is-masturbation-chords.htm
Привет, Гость.
Предлагаем пройти революционный курс по гитаре.
Подарок от PrimaNota.Ru, забирай!