PrimaNota.ru - самый крупный в мире бесплатный архив песенных текстов, аккордов, табулатур и нот


Nothingface - Down In Flames - аккорды и текст, таба, видео

Регистрация Запомнить меня
Войти через:  Facebook Google Twitter Vk Yandex Mail.ru

Nothingface - Down In Flames - аккорды и текст, таба, видео

Печатать
Просмотров: 106
Down In Flames
Nothingface
Band: Nothingface
Song: Down In Flames

Tabber: John Cukras
Email: riffreaper@yahoo.com

Tuning: Drop D

Riff 1:
E--------------------------------------
B--------------------------------------
G--------------------------------------
D--------------------------------55-77-
A-11-11-11-11--33----33----33----33-55-
D-11-11-11-11--33-00-33-00-33-00-------
pm                ..    ..    ..

Riff 2: 13's, 12's
E-----------------------------------------
B-----------------------------------------
G-----------------------------------------
D-----------------------------------------
A-999999-555555-9999999-13131313-12121212-
D-999999-555555-9999999-13131313-12121212-

Riff 3:
E-----------------------
B-----------------------
G-----------------------
D-77-77-77-77-99-111111-
A-77-77-77-77-77-9-9-9--
D-----------------------

Riff 1

Riff 2

Riff 4:
E-----------------------
B-----------------------
G-----------------------
D-----------------------
A-11-0-11-0-11-0-22-333-
D-11-0-11-0-11-0-22-333-

Riff 5
E
B--------------------------
G--------------------------
D--------------------------
A---------------------5555-
D-1-222-1-222-1-222-1-5555-
pm. ... . ... . ... .

Riff 1

Riff 4
Добавлено: 02.06.2012
Другие материалы по этой песне:
  • Аккорды и текст

Страница создана 02.06.2012
http://primanota.ru/nothingface/down-in-flames-chords.htm
Привет, Гость.
Предлагаем пройти революционный курс по гитаре.
Подарок от PrimaNota.Ru, забирай!