PrimaNota.ru - самый крупный в мире бесплатный архив песенных текстов, аккордов, табулатур и нот


Nothingface - Communion - аккорды и текст, таба, видео

Регистрация Запомнить меня
Войти через:  Facebook Google Twitter Vk Yandex Mail.ru

Nothingface - Communion - аккорды и текст, таба, видео

Печатать
Просмотров: 106
Communion
Nothingface
Band: Nothingface
Song: Communion

Tabber: John Cukras
Email: riffreaper@yahoo.com

Tuning: Drop D

Riff 1: Clean.
E----------------------------------------------------------
B----------------------------------------------------------
G--------------------------7-----------------------------2-
D---------4-------------6----6---6---------4------------0--
A---3---3---3---3-----5--------5-----3---3---3---3-----0---
D-3---3-------3-----5--------------3---3-------3-----------

Riff 2:
E----------------------------------------
B----------------------------------------
G----------------------------------------
D-----------------10-9-8-----------------
A-3-3-3-3---5---------------5----3----2--
D-3-3-3-3---5--00--------00-5-00-3-00-2--
pm             ..        ..   ..   ..

Riff 1

Riff 2

Riff 3: Clean.
E------------------------------------------------------
B------------------------------------------------------
G------------------------------------------------------
D-------------------------------------4-----4-----4----
A-3-3-3-3-3/7777-9999-777-555---3---3-----3-----3------
D-----------------------------3---3-----3-----3--------

Riff 4:
E-------------------------------------------------
B-------------------------------------------------
G-------------------------------------------------
D-------------------------------------------------
A-3-3-3-3----3-----5--5-----7-9-8---7-7-7-7-9-8---
D-3-3-3-3----3-000-5--5-000-7-9-8---7-7-7-7-9-8---
pm             ...      ...
Добавлено: 07.05.2012
Другие материалы по этой песне:
  • Аккорды и текст

Страница создана 18.04.2012
http://primanota.ru/nothingface/communion-chords.htm
Привет, Гость.
Предлагаем пройти революционный курс по гитаре.
Подарок от PrimaNota.Ru, забирай!