PrimaNota.ru - самый крупный в мире бесплатный архив песенных текстов, аккордов, табулатур и нот


Nothing More - Mr Mtv - таба, видео

Регистрация Запомнить меня
Войти через:  Facebook Google Twitter Vk Yandex Mail.ru

Nothing More - Mr Mtv - таба, видео

Печатать
Просмотров: 344
Авторы: Mark Knopfler, Gordon Sumner
Авторы музыки: Jonny Hawkins, Mark Vollelunga, Daniel Oliver
Авторы текста: Will Hoffman, Paco Estrada
Nothing More: Mr. MTV

Transcribed by: mysticguitar77

YouTube Channel: https://www.youtube.com/user/MysticGuitar77

Date last modified: January 27, 2015

Tuning: Drop C (C,G,C,F,A,D)

Riff 1
D|-------------------------------------------------------------------------------------------------|
A|-------------------------------------------------------------------------------------------------|
F|-------------------------------------------------------------------------------------------------|
C|-------------------------------------------------------------------------------------------------|
G|-------------------------------------------------------------------------------------------------|
C|-2-x-2h3p2p0-2-x-2h3p2p0-2-x-2h3p2p0-2-x-2h3p2p0-2-x-2h3p2p0-2-x-2h3p2p0-5-x-2h3p2p0-0-x-2h3p2p0-|

D|--------------------------------------------------------------------------------------------|
A|--------------------------------------------------------------------------------------------|
F|--------------------------------------------------------------------------------------------|
C|--------------------------------------------------------------------------------------2--2\-|
G|--------------------------------------------------------------------------------------2--2\-|
C|-2-x-2h3p2p0-2-x-2h3p2p0-2-x-2h3p2p0-2-22222-x-2h3p2p0-2-x-2h3p2p0-5-x-2h3p2p0-0-2222-2--2\-|
                                         ****                                      ****  

Riff 2 (lightly palm-muted, light distortion w/ delay)   "Free drugs, cheap sex..."
D|---------------------------------------------------------------|
A|-----12---10h12---12-13---12h13-----12---10h12---12-13---12h13-|
F|---9----9-------9-------9---------9----9-------9-------9-------|
C|-9------------------------------9------------------------------|
G|---------------------------------------------------------------|
C|---------------------------------------------------------------|

D|-------------------------------------------------|
A|------12--10------------------12--10-------------|
F|----9---------12--11--------9---------12--11-----|
C|-10-------------------12-10-------------------12-|
G|-------------------------------------------------|
C|-------------------------------------------------|

D|---------------------------------------------------------------|
A|-----12---10h12---12-13---12h13-----12---10h12---12-13---12h13-|
F|---9----9-------9-------9---------9----9-------9-------9-------|
C|-9------------------------------9------------------------------|
G|---------------------------------------------------------------|
C|---------------------------------------------------------------|

D|------------------------------------------|
A|------12--10------------------12--10------|
F|----9---------12--11--------9---------12~-|
C|-10-------------------12-10---------------|
G|------------------------------------------|
C|------------------------------------------|

Play Riff 2 x2   "I need this, I need that..."

Riff 3 (light distortion w/ delay)   "I want, I want, I want..."
D|-15-12-14-15-12h14-15-12-14-15-12h14-|
A|-------------------------------------|
F|-------------------------------------|
C|-------------------------------------|
G|-------------------------------------|
C|-------------------------------------|

Play Riff 3 x4

Fill 1 (chorus lead-in)
D|-------------|
A|-------------|
F|-------------|
C|-0-0-0-0-0-0-|
G|-0-0-0-0-0-0-|
C|-0-0-0-0-0-0-|
   * * * * *

Riff 4   "Empty me, empty nation..."
D|------------------------------------------------------------------------------|
A|------------------------------------------------------------------------------|
F|------------------------------------------------------------------------------|
C|-10--10-10--10-10-10-10-5--5-5--5-5-5-5-0--0-0--0-0-0-0-10--10-10--10-10---10-|
G|-10--10-10--10-10-10-10-5--5-5--5-5-5-5-0--0-0--0-0-0-0-7---7--7---7--7--x-7--|
C|-10--10-10--10-10-10-10-5--5-5--5-5-5-5-0--0-0--0-0-0-0-7---7--7---7--7--x-7--|

Riff 4 note: For the first chorus, above only gets played once, for all other chorus's, you repeat it 3 times.

D|---------------------------------------------------------------------------------------------|
A|---------------------------------------------------------------------------------------------|
F|---------------------------------------------------------------------------------------------|
C|-10--10-10--10-10-10-10-10--10-10--10-10-10-9---7-9-9-9-9-7--7-7-7-7-10-10-10-9-9-10-10-10-9-|
G|-10--10-10--10-10-10-10-10--10-10--10-10-10-10--7-7-7-7-7-7--7-7-7-7-7--7--7--7-7-7--7--7--7-|
C|-10--10-10--10-10-10-10-10--10-10--10-10-10-9---7-7-7-7-7-7--7-7-7-7-7--7--7--7-7-7--7--7--7-|

Fill 2
D|-------------------------------|
A|-------------------------------|
F|-------------------------------|
C|-2-x-2h3p2p0-2-x-2h3p2p0-2--2\-|
G|-2-x-2h3p2p0-2-x-2h3p2p0-2--2\-|
C|-2-x-2h3p2p0-2-x-2h3p2p0-2--2\-|

Play Riff 2 x1   "In my iLife, in my iWorld..."
Play Riff 3 x8   "I want, I want, I want..."

Riff 3 (high harmony)
D|-19-15-17-19-15h17-19-15-17-19-15h17-|
A|-------------------------------------|
F|-------------------------------------|
C|-------------------------------------|
G|-------------------------------------|
C|-------------------------------------|

Play Riff 4 x1   "Empty me, empty nation..."
Play Fill 2 x1

Riff 5   "I want, I want, I want..."
D|-------------------------------------------------------------------------------------------|
A|-------------------------------------------------------------------------------------------|
F|-------------------------------------------------------------------------------------------|
C|-------------------------------------------------------------------------------------------|
G|-------------------------------------------------------------------------------------------|
C|-2-x-2h3p2p0-2-x-2h3p2p0-2-x-2h3p2p0-2-x-2h3p2p0-2-x-2h3p2p0-2-x-2h3p2p0-2-x-2h3p2p0-2-x-0-|
   *   * * * * *   * * * * *   * * * * 

Play Riff 1 x1   "Do this, buy that..."

Fill 3   
D|-12----14----15----17---------------------------------------------------------------|
A|-15b17-17b19-18b20-20b22------------------------------------------------------------|
F|------------------------------------------------------------------------------------|
C|-------------------------------10~------5~----0--0-0--0-0-0-0-10--10-10--10-10---10-|
G|-------------------------------10~------5~----0--0-0--0-0-0-0-7---7--7---7--7--x-7--|
C|-------------------------------10~------5~----0--0-0--0-0-0-0-7---7--7---7--7--x-7--|

Play Riff 4 x2   "Empty me, empty nation..."

Ending lead   "Corporate father!!"
D|-12p8----12--8-8-12-12-8-8-12-10p7---10--7-7-10-10-7-7-10-|
A|------10---------------------------8----------------------|
F|----------------------------------------------------------|
C|----------------------------------------------------------|
G|----------------------------------------------------------|
C|----------------------------------------------------------|

D|-10p7----10--------10-10-------10-12p8----12--------12-12-------12-|
A|------10-----10-10-------10-10---------10-----10-10-------10-10----|
F|-------------------------------------------------------------------|
C|-------------------------------------------------------------------|
G|-------------------------------------------------------------------|
C|-------------------------------------------------------------------|

Play Lead x4   "Bastard sons and broken daughters..."

Ending   "Do this, buy that..."
D|---------------------------|
A|---------------------------|
F|---------------------------|
C|-2\----2\----2\----2--2--2-|
G|-2\----2\----2\----2--2--2-|
C|-2\----2\----2\----2--2--2-|

Enjoy!!



        
Добавлено: 26.07.2015
Другие материалы по этой песне:
  • Аккорды и текст

Страница создана 26.07.2015
http://primanota.ru/nothing-more/mr-mtv-chords.htm
Привет, Гость.
Предлагаем пройти революционный курс по гитаре.
Подарок от PrimaNota.Ru, забирай!