PrimaNota.ru - самый крупный в мире бесплатный архив песенных текстов, аккордов, табулатур и нот


Nothing More - Dirge - таба, видео

Регистрация Запомнить меня
Войти через:  Facebook Google Twitter Vk Yandex Mail.ru

Nothing More - Dirge - таба, видео

Печатать
Просмотров: 49
Уроки эстрадного вокала в Санкт-Петербурге
----------------------------------------------------------------- 
Nothing More - Dirge 
----------------------------------------------------------------- 
Tabbed by: Ryan Crane
Email: Ryancrane2016@gmail.com

Tuning: Drop C#
 
D#|-----------------------------|
A#|-2--2-2----------7--7-7--6>--|
F#|-3--3-3--8--8-8--8--8-8--6>--|
C#|-3--3-3--6--6-6--8--8-8--6>--|
G#|-1--1-1--6--6-6--6--6-6--4>--|
C#|---------6--6-6--------------|

D#|-----------------------------|
A#|-2--2-2----------6h7-7-7--6>-|
F#|-3--3-3--8---8---8---8-8--6>-|
C#|-3--3-3--8---8---8---8-8--6>-|
G#|-1--1-1--6---6---6---6-6--4>-|
C#|---------6---6---------------|

D#|-----------------------------|
A#|-2--2-2----------7--7-7--6>--|
F#|-3--3-3--8--8-8--8--8-8--6>--|
C#|-3--3-3--6--6-6--8--8-8--6>--|
G#|-1--1-1--6--6-6--6--6-6--4>--|
C#|---------6--6-6--------------|

D#|-----------------------------------|
A#|-2--2-2----------6h7--7-7-7--6~>---|
F#|-3--3-3--6h8~-8--8----8-8-8--6~>---|
C#|-3--3-3--6----6--8----8-8-8--6~>---|
G#|-1--1-1--6----6--6----6-6-6--4~>---|
C#|-----------------------------------|

| /  slide up
| \  slide down
| h  hammer-on
| p  pull-off
| s  strumming swell
| "  pick scratch
| ~  vibrato
| *  pinch harmonic
| >  sustain note
| +  harmonic
| x  Mute note
Добавлено: 10.11.2015
Другие материалы по этой песне:
  • Аккорды и текст

Страница создана 10.11.2015
http://primanota.ru/nothing-more/dirge-chords.htm
Привет, Гость.
Предлагаем пройти революционный курс по гитаре.
Подарок от PrimaNota.Ru, забирай!