PrimaNota.ru - самый крупный в мире бесплатный архив песенных текстов, аккордов, табулатур и нот


Nothing Ever Stays - The Revenge Of Holden Caufield - таба, видео

Регистрация Запомнить меня
Войти через:  Facebook Google Twitter Vk Yandex Mail.ru

Nothing Ever Stays - The Revenge Of Holden Caufield - таба, видео

Печатать
Просмотров: 96
-------------------------------------------------------------------------------
The Revenge of Holden Caufield – Nothing Ever Stays
-------------------------------------------------------------------------------
Tabbed by: Al the Killer
Email: cool240024@yahoo.com

Tuning: Standard: eADGBE
Rhythm guitar

Intro- x1

e|----------------------------------------------------------------------|
B|----------------------------------------------------------------------|
G|-------------------6-------------7------4-----------------------------|
D|------7------9------------7---------------------7-------97------6-----|
A|--99-----99-----9-----55-----55-----5------77-------77------777----7--|
E|----------------------------------------------------------------------|

e|-------------------------------------------------------------------------------|
B|-------------------------------------------------------------------------------|
G|-------------------------------------------------------------------------------|
D|---6h7p6-----------------------------------------------------------------------|
A|------------97-----------------------------------------------------------------|
E|-------------------------------------------------------------------------------|

Verse- x4

e|---------------------------------------------------------------------------|
B|---------------------------------------------------------------------------|
G|-------------------6-------------7------4----------------------------------|
D|------7------9------------7---------------------7-------97------6----------|
A|--99-----99-----9-----55-----55-----5------77-------77------777----7-------|
E|---------------------------------------------------------------------------|

e|---------------------------------------------------------------------------|
B|---------------------------------------------------------------------------|
G|---------------------------------------------------------------------------|
D|---6h7p6-------------------------------------------------------------------|
A|------------97-------------------------------------------------------------|
E|---------------------------------------------------------------------------|

Chorus x3

e|---------------------------------------------------------------------------|
B|---------------------------------------------------------------------------|
G|---11--------7----------9--------------------------------------------------|
D|---11--------7----------9--------------------------------------------------|
A|---9—x8------5—x8-------7—x16----------------------------------------------|
E|---------------------------------------------------------------------------|

x1

e|---------------------------------------------------------------------------|
B|---------------------------------------------------------------------------|
G|---11--------7----------9--------9-------9---------------------------------|
D|---11--------7----------9--------9-------9---------------------------------|
A|---9—x8------5—x8-------7—x2-----7-x2----7—x6------------------------------|
E|---------------------------------------------------------------------------|

Bridge

e|---------------------------------------------------------------------------|
B|---------------------------------------------------------------------------|
G|---7-----------------------------------------------------------------------|
D|---7--------2-------4-------2-------7--------------------------------------|
A|---5—x4-----2-------4-------2-------7--------------------------------------|
E|------------0—x8----2—x2----0—x2----5—x8-----------------------------------|


e|---------------------------------------------------------------------------|
B|---------------------------------------------------------------------------|
G|---7-----------------------------------------------------------------------|
D|---7--------2------2-------2------4-------2-------7------------------------|
A|---5—x4-----2------2-------2------4-------2-------7------------------------|
E|------------0—x2---0—x2----0—x2---2—x2----0—x2----5—x8---------------------|

-It's all the same stuff for the most part after that.  Not really good enough to tab
the lead that well, but that's pretty close for the rhythm.  Enjoy, it's a pretty cool song.

| /  slide up
| \  slide down
| h  hammer-on
| p  pull-off
| ~  vibrato
| +  harmonic
| x  Mute note
===============================================================================
Добавлено: 08.03.2012
Другие материалы по этой песне:
  • Аккорды и текст

Страница создана 08.03.2012
http://primanota.ru/nothing-ever-stays/the-revenge-of-holden-caufield-chords.htm
Привет, Гость.
Предлагаем пройти революционный курс по гитаре.
Подарок от PrimaNota.Ru, забирай!