PrimaNota.ru - самый крупный в мире бесплатный архив песенных текстов, аккордов, табулатур и нот


Not Katies - 2 Halves Of 2 - таба, бас-таба, видео

Регистрация Запомнить меня
Войти через:  Facebook Google Twitter Vk Yandex Mail.ru

Not Katies - 2 Halves Of 2 - таба, бас-таба, видео

Печатать
Просмотров: 118
Not Katies - Two Halves Of Two

________________________________________

             Guitar/Rhythm :
________________________________________

Intro = Chorus


Verse 1+2
e------------------------------------------|
B------------------------------------------|
G-5555-------------------------------------|
D-5555---3333-----7777---5555--------------|
A-3333---3333-----7777---5555--------------|
E--------1111-----5555---3333--------------|

Chorus/Intro

e-----------------------------------------------|
B-----------------------------------------------|
G-55555555--------------------------------------|
D-55555555---55555555---77777777---33333333-----|
A-33333333---55555555---77777777---33333333-----|
E------------33333333---55555555---11111111-----|

Verse 3

e---------------------|
B---------------------|
G-55------------------|
D-55-----33---77---55-|
A-33-----33---77---55-|
E--------11---55---33-|

Outro = Chorus


________________________________________

             Guitar/Lead :
________________________________________


Not Katies - Two Halves Of Two Guitar/Lead

Intro + Chorus

e--------------------------------------------------------------------
B--------------------------------------------------------------------
G-5--7--5--7-----12--10--12--10-------10--9--7--5--7---5--12—5-------
D-x--x--x--x------x---x---x---x------ x---x--x--x--x---x---x—x-------
A-3--5--3--5-----10---8--10---8-------8---7--5--3--5---3--10—3-------
E--------------------------------------------------------------------

No Lead For Verse one or two

Verse 3

e----------------------------------------------------------------------------
B-0-1-(let ring)------0-1-(let ring)------0-1-(let ring)------5-3-(let ring)-
G----------------------------------------------------------------------------
D----------------------------------------------------------------------------
A----------------------------------------------------------------------------
E----------------------------------------------------------------------------

Outro

e--------------
B--------------
G-5555---5-5-5-
D-xxxx---x-x-x-
A-3333---3-3-3-
E--------------                 X4


___________________________________________
Tabbed by Garrie c.
The G Pimp Tabs Again!!!!!!!!!
Добавлено: 08.03.2012
Другие материалы по этой песне:
  • Аккорды и текст

Страница создана 08.03.2012
http://primanota.ru/not-katies/2-halves-of-2-chords.htm
Привет, Гость.
Предлагаем пройти революционный курс по гитаре.
Подарок от PrimaNota.Ru, забирай!