PrimaNota.ru - самый крупный в мире бесплатный архив песенных текстов, аккордов, табулатур и нот


Not By Choice - This Old Place - текст песни, таба, видео

Регистрация Запомнить меня
Войти через:  Facebook Google Twitter Vk Yandex Mail.ru

Not By Choice - This Old Place - текст песни, таба, видео

Печатать
Просмотров: 90
Not By Choice
This Old Place
Maybe One Day(2002)
Tabbed by:Fuse49

Intro:

First part:

e|------------------------------------|
B|------------------------------------|
G|----------4-4-4---5-5-5---7-7-7-----|
D|--5-5-5---4-4-4---5-5-5---7-7-7---x2|
A|--5-5-5---2-2-2---3-3-3---5-5-5-----|
E|--3-3-3-----------------------------| 

Second part:

e|-----------------------|
B|-----------------------|
G|--5-5-5-5---7-7-7-7----|
D|--5-5-5-5---7-7-7-7----|
A|--3-3-3-3---5-5-5-5----|
E|-----------------------|

First verse:

e|-----------------------------------------------|
B|-----------------------------------------------|
G|-------------44444444---55555555---77777777----|
D|--55555555---44444444---55555555---77777777----|
A|--55555555---22222222---33333333---55555555----|
E|--33333333-------------------------------------|

Chorus:

e|---------------------------------------------------|
B|---------------------------------------------------|
G|------------4--44-444-------------7--77-777--------|
D|--7-7-777---4--44-444---5-5-555---7--77-777--x2----|
A|--7-7-777---2--22-222---5-5-555---5--55-555--------|
E|--5-5-555---------------3-3-333--------------------|

Post-chorus:

Mike:

e|------------------------------------|
B|------------------------------------|
G|----------4-4-4---5-5-5---7-7-7-----|
D|--5-5-5---4-4-4---5-5-5---7-7-7---x2|
A|--5-5-5---2-2-2---3-3-3---5-5-5-----|
E|--3-3-3-----------------------------|

Chico:

e|-----------------------------------------|
B|-----------------------------------------|
G|--12-12-12---11-11-11---9-9-9---7-7-7----|
D|--x--x--x----x--x--x----x-x-x---x-x-x----|
A|--10-10-10---9--9--9----7-7-7---5-5-5----|
E|-----------------------------------------|

Continued:

e|-----------------------------------------------|
B|-----------------------------------------------|
G|--12-12-12---11-11-11---12-12-12---14-14-14----|
D|--x--x--x----x--x--x----x--x--x----x--x--x-----|
A|--10-10-10---9--9--9----10-10-10---12-12-12----|
E|-----------------------------------------------|

2nd part:

Mike:

e|-----------------------|
B|-----------------------|
G|--5-5-5-5---7-7-7-7----|
D|--5-5-5-5---7-7-7-7----|
A|--3-3-3-3---5-5-5-5----|
E|-----------------------|

Chico:

e|-------------------------------|
B|-------------------------------|
G|--12-12-12-12---14-14-14-14----|
D|--x--x--x--x----x--x--x--x-----|
A|--10-10-10-10---12-12-12-12----|
E|-------------------------------|

Bridge:

Chico:

e|----------------------------------------------------------------------|
B|----------------------------------------------------------------------|
G|--14---14-12---14-16-14-12-----11-12~--11-12~--11-12--14-12--11-12~---|
D|--x-~--x--x----x--x--x--x---------------------------------------------|
A|--12---12-10---12-14-12-10--------------------------------------------|
E|----------------------------------------------------------------------|

2nd part:

Mike:

e|---------------------------------------------------|
B|---------------------------------------------------|
G|---------------------------------------------------|
D|--555--5-5-5-5--5-5-5---55-55-55-55-55-55-55-55----|
A|--555--5-5-5-5--5-5-5---55-55-55-55-55-55-55-55----|
E|--333--3-3-3-3--3-3-3---33-22-33-22-33-22-33-22----|

Chico:

e|--------------------------------------------------------------------------|
B|--------------------------------------------------------------------------|
G|--121212--12-12-12-12--12-12-12---1212-1111-1212-1111-1212-1111-1212-1111-|
D|--x-x-x---x--x--x--x---x--x--x----x-x--x-x--x-x--x-x--x-x--x-x--x-x--x-x--|
A|--101010--10-10-10-10--10-10-10---1010-1010-1010-1010-1010-1010-1010-1010-|
E|--------------------------------------------------------------------------|

Chorus x2

Outro:

Mike:

e|------------------------------------|
B|------------------------------------|
G|----------4-4-4---5-5-5---7-7-7-----|
D|--5-5-5---4-4-4---5-5-5---7-7-7---x2|
A|--5-5-5---2-2-2---3-3-3---5-5-5-----|
E|--3-3-3-----------------------------|

Chico:

e|-----------------------------------------|
B|-----------------------------------------|
G|--12-12-12---11-11-11---9-9-9---7-7-7----|
D|--x--x--x----x--x--x----x-x-x---x-x-x----|
A|--10-10-10---9--9--9----7-7-7---5-5-5----|
E|-----------------------------------------|

Continued:

e|-----------------------------------------------|
B|-----------------------------------------------|
G|--12-12-12---11-11-11---12-12-12---14-14-14----|
D|--x--x--x----x--x--x----x--x--x----x--x--x-----|
A|--10-10-10---9--9--9----10-10-10---12-12-12----|
E|-----------------------------------------------|

2nd part:

Mike:

e|-----------------------|
B|-----------------------|
G|--5-5-5-5---7-7-7-7----|
D|--5-5-5-5---7-7-7-7----|
A|--3-3-3-3---5-5-5-5----|
E|-----------------------|

Chico:

e|-------------------------------|
B|-------------------------------|
G|--12-12-12-12---14-14-14-14----|
D|--x--x--x--x----x--x--x--x-----|
A|--10-10-10-10---12-12-12-12----|
E|-------------------------------|
Добавлено: 29.09.2013
Другие материалы по этой песне:
  • Аккорды и текст

Страница создана 03.07.2012
http://primanota.ru/not-by-choice/this-old-place-chords.htm
Привет, Гость.
Предлагаем пройти революционный курс по гитаре.
Подарок от PrimaNota.Ru, забирай!