PrimaNota.ru - самый крупный в мире бесплатный архив песенных текстов, аккордов, табулатур и нот


Not Advised - The Worlds Not Ready - таба, видео

Регистрация Запомнить меня
Войти через:  Facebook Google Twitter Vk Yandex Mail.ru

Not Advised - The Worlds Not Ready - таба, видео

Печатать
Просмотров: 106
Уроки эстрадного вокала в Санкт-Петербурге
-----------------------------------------------------------------
THE WORLD'S NOT READY – Not Advised
-----------------------------------------------------------------
Tabbed by:Jojo9601
Email:joeguthrie2@hotmail.com
Tuning:Drop D(DADGbe)
Intro:
e|--2---2---2---2---0---0---3---3-----|
B|----3---3---3---3---3---3---3---3---|
G|------------------------------------|
D|------------------------------------|
A|------------------------------------|
E|------------------------------------|

Verse

e|---------------------------------------------------------------|
B|---------------------------------------------------------------|
G|---------------------------------------------------------------|
D|------7----------------------------------------------7-4-------| x4
A|--------5/--------7—9-10-9-------7-5h7-7------7----------------|
E|--0-0---------0-0-------------0-----------0-0----0-0-----------|
    . .         . .             .           . .    . .
                                               
e|-----------------------------------------------|
B|-----------------------------------------------|
G|------------------11-11-11-9-------------------|
D|--5-5--5--5-5--5—-x--x--x--x--7-7--7--7-7--7—--|x2
A|--5-5--5--5-5--5--9--9--9--7--7-7--7--7-7--7—--|
E|--5-5--5--5-5--5--------------7-7--7--7-7--7---|
  ________________________
  |1.         |2
e|------------|-----------|
B|------------|-----------|
G|--9\11-9/7--|-----------|
D|--x\x—-x/x--|-7-7-7-7---|
A|--7\9--7/5--|-7-7-7-7---|
E|------------|-7-7-7-7---|

Chorus:

e|-----------------------------------------------------|           \
B|-----------------------------------------------------|           | 
G|--7-7-7-7-7-7-7-7-------------------4-4-4-4-4-4-4-4--|           |
D|--7-7-7-7-7-7-7-7--7-7-7-7-7-7-7-7--4-4-4-4-4-4-4-4--|           | 
A|--5-5-5-5-5-5-5-5--7-7-7-7-7-7-7-7--2-2-2-2-2-2-2-2--|           |  
E|-------------------7-7-7-7-7-7-7-7-------------------|           |   
                                                                   | x2 
e|--------------------|                                            |     
B|--------------------|                                            |  
G|--------------------|                                            |
D|--5-5-5-5-5-5-5-5---|                                            | 
A|--5-5-5-5-5-5-5-5---|                                           / 
E|--5-5-5-5-5-5-5-5---|                                              

Verse

e|---------------------------------------------------------------|
B|---------------------------------------------------------------|
G|---------------------------------------------------------------|
D|------7----------------------------------------------7-4-------| x4
A|--------5/--------7—9-10-9-------7-5h7-7------7----------------|
E|--0-0---------0-0-------------0-----------0-0----0-0-----------|
    . .         . .             .           . .    . .
                                               
e|-----------------------------------------------|
B|-----------------------------------------------|
G|------------------11-11-11-9-------------------|
D|--5-5--5--5-5--5—-x--x--x--x--7-7--7--7-7--7—--|x2
A|--5-5--5--5-5--5--9--9--9--7--7-7--7--7-7--7—--|
E|--5-5--5--5-5--5--------------7-7--7--7-7--7---|
  ________________________
  |1.         |2
e|------------|-----------|
B|------------|-----------|
G|--9\11-9/7--|-----------|
D|--x\x—-x/x--|-7-7-7-7---|
A|--7\9--7/5--|-7-7-7-7---|
E|------------|-7-7-7-7---|

Chorus:

e|-----------------------------------------------------|           \
B|-----------------------------------------------------|           | 
G|--7-7-7-7-7-7-7-7-------------------4-4-4-4-4-4-4-4--|           |
D|--7-7-7-7-7-7-7-7--7-7-7-7-7-7-7-7--4-4-4-4-4-4-4-4--|           | 
A|--5-5-5-5-5-5-5-5--7-7-7-7-7-7-7-7--2-2-2-2-2-2-2-2--|           |  
E|-------------------7-7-7-7-7-7-7-7-------------------|           |   
                                                                   | x2 
e|--------------------|                                            |     
B|--------------------|                                            |  
G|--------------------|                                            |
D|--5-5-5-5-5-5-5-5---|                                            | 
A|--5-5-5-5-5-5-5-5---|                                            / 
E|--5-5-5-5-5-5-5-5---|                                              

Bridge:

e|-------------------------------------------------|                \
B|-------------------------------------------------|                |     
G|--4-4-x-4-4-x-4-4-x-4-4-x------------------------|                |      
D|--4-4-x-4-4-x-4-4-x-4-4-x-7-7-x-7-7-x-7-7-x-7-7--|                |            
A|--2-2-x-2-2-x-2-2-x-2-2-x-7-7-x-7-7-x-7-7-x-7-7--|                |            
E|--------------------------7-7-x-7-7-x-7-7-x-7-7--|                |          
                                                                    | x2             
                                                                    |         
e|------------------------------------|                             |      
B|------------------------------------|                             |         
G|------------------------------------|                             |           
D|--5-5-5-5-5-5-5-5-5-5-5-5-5-5-5-5---|                             |            
A|--5-5-5-5-5-5-5-5-5-5-5-5-5-5-5-5---|                             /           
E|--5-5-5-5-5-5-5-5-5-5-5-5-5-5-5-5---|                                       

(clean) im not sure about this bit I think its right but if its not leave a comment 

e|--------------------------------------------------------|
B|--------------------------------------------------------|
G|--7-7-7--9-9-9/11-11------------------4-4-4-4-4-4-4-4---|
D|--7-7-7--9-9-9/x--x---7-7-7-7-7-7-7-7-4-4-4-4-4-4-4-4---|
A|--5-5-5--7-7-7/9--9---7-7-7-7-7-7-7-7-2-2-2-2-2-2-2-2---|
E|----------------------7-7-7-7-7-7-7-7-------------------|

e|---------------------------------------------------------------|
B|---------------------------------------------------------------|
G|---------------------------------------------------------------|
D|-5-5-5-5-5-5-5-5-5-5-5-5-5-5-5-5-------------------------------|
A|-5-5-5-5-5-5-5-5-5-5-5-5-5-5-5-5-------------------------------|
E|-5-5-5-5-5-5-5-5-5-5-5-5-5-5-5-5-------------------------------|
   . . . . . . . . . . 

Chorus:

e|-----------------------------------------------------|           \
B|-----------------------------------------------------|           | 
G|--7-7-7-7-7-7-7-7-------------------4-4-4-4-4-4-4-4--|           |
D|--7-7-7-7-7-7-7-7--7-7-7-7-7-7-7-7--4-4-4-4-4-4-4-4--|           | 
A|--5-5-5-5-5-5-5-5--7-7-7-7-7-7-7-7--2-2-2-2-2-2-2-2--|           |  
E|-------------------7-7-7-7-7-7-7-7-------------------|           |   
                                                                   | x3 
e|--------------------|                                            |     
B|--------------------|                                            |  
G|--------------------|                                            |
D|--5-5-5-5-5-5-5-5---|                                            | 
A|--5-5-5-5-5-5-5-5---|                                            / 

outro

e|-----------------|
B|-----------------|
G|--7--------------|
D|--7-(let ring)---|
A|--5--------------|
E|-----------------|



| /  slide up
| \  slide down
| h  hammer-on
| p  pull-off
| ~  vibrato
| +  harmonic
| x  Mute note
Добавлено: 26.06.2012
Вам также может быть интересно:
Другие материалы по этой песне:
  • Аккорды и текст

Страница создана 26.06.2012
http://primanota.ru/not-advised/the-worlds-not-ready-chords.htm
Привет, Гость.
Предлагаем пройти революционный курс по гитаре.
Подарок от PrimaNota.Ru, забирай!