PrimaNota.ru - самый крупный в мире бесплатный архив песенных текстов, аккордов, табулатур и нот


Nosequien Y Los Nosecuantos - Vanidad - аккорды и текст, видео

Регистрация Запомнить меня
Войти через:  Facebook Google Twitter Vk Yandex Mail.ru

Nosequien Y Los Nosecuantos - Vanidad - аккорды и текст, видео

Печатать
Просмотров: 65
Vanidad
Nosequien Y Los Nosecuantos
G  : 355433
F  : 133211
Cm : X35543
Dm7: X57565

INTRO 1:
E---------------------------------------------------
B--------------------0------------------------------
G--0--0---0--------0---0--0---------------------2---
D-------3---3--0-3----------3--3--1--3--1---1h3---3-
A-----------------------------------------3---------
E---------------------------------------------------

   Cm        Dm7            G
E--3--3------5--------------3--
B--4----4----6------6-------3--
G--5------5--5--------5-----4--
D--5---------7----------7---5--
A--3---------5--------------5--
E--3---------5--------------3--

INTRO 2:
Mismo Riff, con: G (G) F Cm Dm7 G

G                        (G)    F
Dicen que me paresco a Tony Curtis
       Cm   Dm7             G
ya quisiera, ya quisiera el
                        (G)     F
Si tanto me paresco a Tony Curtis
Cm               Dm7             G
por que discurtis? algo debe haber!

(Mismo patrón)
Dicen que tengo los ojos de Tom Cruise
y asi a la luz deben verse bien
Yo digo que tengo los ojos claro
y eso, claro, quiero aclararlo bien

CORO:
G                  (G)      F
Vanidad, oooo es pura vanidad, wooo
Vanidad, woooo es pura vanidad, wooo

Tu dices que me paresco a Ferrando
oyeme , me estas hueveando?
Eso no puede ser!
Lo que pasa es que estoy engordando
pero a lo Marlon Brando
Eso debe ser

[CORO]
[CORO]

[Ruido] 

E----------
B--6-5-4-3-
G--7-6-5-4-
D----------
A----------
E---------- x4

[INTRO 2]

Si para bailar la bamba se necesita
una poca de gracia, yo tengo 2+2+2+2!!!
Si para subir al cielo se nesecita una escalera
yo voy en acensor

[CORO]
[CORO] Vanidad, Vanidad, Vanidad, vanidad!

Acaba en G
Добавлено: 07.02.2016
Вам также может быть интересно:
Другие материалы по этой песне:
  • Аккорды и текст

Страница создана 06.02.2016
http://primanota.ru/nosequien-y-los-nosecuantos/vanidad-chords.htm
Привет, Гость.
Предлагаем пройти революционный курс по гитаре.
Подарок от PrimaNota.Ru, забирай!