PrimaNota.ru - самый крупный в мире бесплатный архив песенных текстов, аккордов, табулатур и нот


Nosequien Y Los Nosecuantos - Bajo La Luna - аккорды и текст, видео

Регистрация Запомнить меня
Войти через:  Facebook Google Twitter Vk Yandex Mail.ru

Nosequien Y Los Nosecuantos - Bajo La Luna - аккорды и текст, видео

Печатать
Просмотров: 86
Bajo La Luna
Nosequien Y Los Nosecuantos
      NOSEQUIEN Y LOS NOSECUANTOS >>> Bajo la Luna~PISCOSOUR

Esta es mi 1ra transcripciòn...espero ke les ayude bastante ... el tema tiene bastante FEELING.....
asi es ke ..pònganle ganas y veran los resultados
...cualkier correción a mi correo : jyef_invencible@hot.........:) ;) )

           Dsus2      Bm*       C*      A*
  E-||-----0-----------0--------3---------5--------
  B-||-----2-----------3--------5---------5--------
  G-||-----3-----------4--------5---------6--------
  D-||-----0-----------4--------5---------7---------
  A-||-----0-----------2--------3---------7---------
  E-||-----X-----------x--------3---------5---------

Intro :
  \\                 Dsus2                          Bm*
E-| |--------0-------0-------0---0-----0-------0--------0------0------0--0------0-------0--
B-| |----------3-------3-----------3------3----------------3------3--------3------3--------
G-| |---2--------2-------2----------2-------2-------4-------4------4----------4------4----- 
D-| |---0-------------------------------------------4--------------------------------------
A-| |--------------------------------------------------------------------------------------
E-| |--------------------------------------------------------------------------------------
  //

 Dsus2               Bm*
Acércate, niña de mi vida
 Dsus2                Bm*
abrázame, dame una sonrisa
      C                           A
ya la luna esta escondida en tu piel
         C                A          A
y en tus ojos de pequeña mujer


   Dsus2                   Bm*
acuéstate, sé que estas rendida
    Dsus2               Bm*
dos ángeles cuidan tu mejillas
       C*                     A*
vas luchando contra el sueño otra vez
        C*                   A*
dando vueltas como tiene que ser ...


CORO:
C#m         A             E           B
    Y buscarás dormir de pie bajo la luna
C#m             A              B  F#
    pintando estrellas de cristal
C#m        A          E           B
    dibujarás sirenas entre la penumbra
      F#                        B      A...
hasta que la noche te haga desmayar


  Dsus2              Bm*
Acércate, niña convencida
  Dsus2               Bm*
explícame cosas de la viiida
       C*                    A*
en tu mundo la ilusión es la ley
       C*                     A*
es el juego que yo quiero aprender


CORO:

C#m             A        E            B
    Y buscarás dormir de pie bajo la luna
C#m            A                B   F#
    pintando estrellas sobre el mar
C#m       A                E          B
   y gritarás al mundo en medio de la noche
          F#                          B
   eres grande y todos tiene que escuchar...

*~SoLo :

         B A E F      B A E Em A   (pueden usar octavas...)

  Dsus2              Bm*
acércate, hija de mi vida
  Dsus2                Bm*
abrázame, dáme una sonriiiisa
   Dsus2               Bm*
explícame, cosas de la vida
   Dsus2                  Bm*
acuéstate se que estas rendida
  Dsus2                 Bm*
acércate , abrázame, explícame , acuéstate
    Dsus2               Bm*
hija mía ....niña de mi vidaahhahaha......

~*** saludos pa'mis patas ...>>>P*P
Добавлено: 07.02.2016
Другие материалы по этой песне:
  • Аккорды и текст

Страница создана 06.02.2016
http://primanota.ru/nosequien-y-los-nosecuantos/bajo-la-luna-chords.htm
Привет, Гость.
Предлагаем пройти революционный курс по гитаре.
Подарок от PrimaNota.Ru, забирай!