PrimaNota.ru - самый крупный в мире бесплатный архив песенных текстов, аккордов, табулатур и нот


Nose - The Dick Song - таба, видео

Регистрация Запомнить меня
Войти через:  Facebook Google Twitter Vk Yandex Mail.ru

Nose - The Dick Song - таба, видео

Печатать
Просмотров: 134
Bueno esta es una canción de la banda NOSE, es muy sencilla así que decidí hacer una 
tablatura de ella, Aquí está la canción:
http://www.youtube.com/watch?v=2mc0TiZtdpU


|--------------------|
|--------------------|
|--------5-----------|
|--------5-----------|
|--------3-----------|
|--------------------|
GUITARRA LIDER:
Intro:

e|--------------------|--------------------------|
b|--------------------|--------------------------|
g|-9------------------|-9------------------------|x4
d|---10--10-11-10--10-|---10--10-11-10-11-10-11--|
a|--------------------|--------------------------|
E|--------------------|--------------------------|

Verso:


e|--------------------------|
b|--------------------------|
g|-9------------------------|x8
d|---10--10-11-10-11-10-11--|
a|--------------------------|
E|--------------------------|

Coro:
e|--------------------|--------------------------|
b|--------------------|--------------------------|
g|-9------------------|-9------------------------|x4
d|---10--10-11-10--10-|---10--10-11-10-11-10-11--|
a|--------------------|--------------------------|
E|--------------------|--------------------------|

2DO VERSO Y 2DO CORO IGUALES JAJAJAJA

Interludio (Al mauri le gusta el pene)
e|---------------------------|
b|---------------------------|
g|---------------------------|x1
d|--2-------------2----------|
a|----3--3-5-3--3---3--3-5-3-|
E|---------------------------|

e|-----------------------------------------------|
b|-----------------------------------------------|
g|-----------------------------------------------|
d|------2-3-2-----2-3-2------2-3-2------2-3-2----|
a|--3-3------3--3--------------------------------|
E|----------------------3--3-------3--3----------|
PM: - -      -  -       -  -       -  -
e|-----------------------------------------------|
b|-----------------------------------------------|
g|-----------------------------------------------|
d|------2-3-2------2-3-2-------------------------|
a|--0-0-------0--0-------3--333333-5--555555-----|
E|-----------------------1--111111-3--333333-----|
PM: - -       -  -       ---------

CORO FINAL:
e|-----------------------------------|
b|--7-------------7------------------|
g|----7--7-9-7--7---7--7--9-7-9-7-9--|
d|-----------------------------------|
a|-----------------------------------|
E|-----------------------------------|

OUTRO:
e|-----------------------------------------------|
b|--7--7--7-8-9-8-7--------7---------------------|
g|-----------------------------------------------|
d|-----------------------------------------------|
a|-----------------------------------------------|
E|-----------------------------------------------|


GUITARRA RITMICA
INTRO:
e|------------------------------------------|
b|------------------------------------------|
g|--5-555555--------------------------------|
d|--5-555555-5-555555-7-777777--------------|     X4
a|--3-333333-5-555555-7-777777-3-33-5-55----|
E|-----------3-333333-5-555555-1-11-3-33----|

e|-------------------------------------------------------------------|
b|-------------------------------------------------------------------|
g|-------------------------------------------------------------------|
d|-5-5-5-5-5-5-5-5---------------------------------------------------|  X2
a|-3-3-3-3-3-3-3-3-5-5-5-5-5-5-5-5--7-7-7-7-7-7-7-7-3-3-3-3-5-5-5-5--|
E|-----------------3-3-3-3-3-3-3-3--5-5-5-5-5-5-5-5-1-1-1-1-3-3-3-3--|
PM:- - - - - - - - - - - - - - - -  - - - - - - - - - - - - - - - -

CORO :

e|------------------------------------------|
b|------------------------------------------|
g|--5-555555--------------------------------|
d|--5-555555-5-555555-7-777777--------------|     X4
a|--3-333333-5-555555-7-777777-3-33-5-55----|
E|-----------3-333333-5-555555-1-11-3-33----|


REPETIR VERSO
REPETIR CORO

INTERLUDIO:
e|-------------------------------------------------------------|
b|-------------------------------------------------------------|
g|--5-------------------5--------------------------------------|
d|--5----5----7----3----5---5---7------------------------------| X1
a|--3----5----7----3----3---5---7--3-333333-5-555555-----------|
E|-------3----5----1--------3---5--1-111111-3-333333-----------|

CORO FINAL

e|------------------------------------------|
b|------------------------------------------|
g|--7-777777--------------------------------|
d|--7-777777-7-777777-9-999999-5-555555-----|     X4
a|--5-555555-7-777777-9-999999-5-555555-----|
E|-----------5-555555-7-777777-3-333333-----|

OUTRO
e|---------------------------------|
b|---------------------------------|
g|--7-X7-X7-7-X7-X7-7-7---------7--|
d|--x-xx-xx-x-xx-xx-x-x---------x--|
a|--5-X5-X5-5-X5-X5-5-5---------5--|
E|---------------------------------|

ESTO ES TODO!!!!!! PUEDEN BAJAR EL DISCO DE NOSE DESDE EL SIGUIENTE LINK:
http://www.mediafire.com/download.php?g6fxkb8zy61u2k7

PORFAVOR COMENTAR!


BAND PAGE: WWW.FACEBOOK.COM/NOSECHILE
Добавлено: 24.11.2013
Другие материалы по этой песне:

Страница создана 04.11.2013
http://primanota.ru/nose/the-dick-song-chords.htm
Привет, Гость.
Предлагаем пройти революционный курс по гитаре.
Подарок от PrimaNota.Ru, забирай!