PrimaNota.ru - самый крупный в мире бесплатный архив песенных текстов, аккордов, табулатур и нот


Nose - Gamers - таба, видео

Регистрация Запомнить меня
Войти через:  Facebook Google Twitter Vk Yandex Mail.ru

Nose - Gamers - таба, видео

Печатать
Просмотров: 81
Canción: Gamers
Autor: NOSE
DISCO: Estúpido Proyecto Bipolar



VERSO 1 :
Han pasado muchos dias...
e|-------------------------------------------------------------------------|
B|-------------------------------------------------------------------------|
G|-----------9999999----------77777777----------9999999--------------------| 
D|--77777777-9999999----------77777777-77777777-9999999-44444444-77777777--|
A|--77777777-7777777-44444444-55555555-77777777-7777777-44444444-55555555--|
E|--55555555---------22222222----------55555555---------22222222-----------|

Pre-coro:
''parece, que hoy me quedare...''
e|------------------------------------|
B|------------------------------------|
G|------------------------------------| x 2
D|---------9-9--------------7-777777--|
A|-7-7-----7-7-----4-444444-5-555555--|
E|-5-5-------------2-222222-----------|

e|--------------------|
B|--------------------|
G|--------------------| 
D|--7-----------------| Dejar sonando
A|--7-----------------|
E|--5-----------------|

CORO:

e|---------------------------------------------------------------------|
B|---------------------------------------------------------------------|
G|---------------------------------------------------------------------| 
D|----------------------------------------------------7777777777777777-| X2
A|-7777777777777777-2222222222222222-4444444444444444-5555555555555555-|
E|-5555555555555555-0000000000000000-2222222222222222------------------|




SOLO(LA 2DA GUITARRA SIGUE TOCANDO EL CORO):
e|----------------------------------------------------------------|
B|----------------------------------------------------------------|
G|-----10------------------10-------------------------------------| 
D|---7----9-11-9-11-10-9-7----9/11-7-----7/9-9999---7/99999-------|
A|----------------------------------------------------------------|
E|----------------------------------------------------------------|


e|----------------------------------------------------------------|
B|----------------------------------------------------------------| 
G|--7X7X7X7/9-99-9--------7h9---7h9---7h9---7h9/11--11-11-11-7----|
D|---------------------7h9---7h9---7h9---7h9----------------------|
A|----------------------------------------------------------------|
E|----------------------------------------------------------------|


e|----------------------------------------------|
B|-7-9--10-9-7-9-10-----------------------------|
G|--9--9--9-9-9-9--9---9-9-999/10-10101010101010| 
D|----------------------------------------------|
A|----------------------------------------------|
E|----------------------------------------------|

REPETIR VERSO
REPETIR PRE CORO
REPETIR CORO


www.facebook.com/nosechile
Добавлено: 10.06.2013
Другие материалы по этой песне:
  • Аккорды и текст

Страница создана 10.06.2013
http://primanota.ru/nose/gamers-chords.htm
Привет, Гость.
Предлагаем пройти революционный курс по гитаре.
Подарок от PrimaNota.Ru, забирай!