PrimaNota.ru - самый крупный в мире бесплатный архив песенных текстов, аккордов, табулатур и нот


Northstar - Two Zero Tow - таба, видео

Регистрация Запомнить меня
Войти через:  Facebook Google Twitter Vk Yandex Mail.ru

Northstar - Two Zero Tow - таба, видео

Печатать
Просмотров: 52
Two Zero Two-Northstar

Guitar 1

verse
E------------|
B------------|
G----0---0~--|
D--2---0-----| 6x
A------------|
E------------|

prechorus
E----------------------------|--------------------------|
B----------------------0-----|--------------------------|
G------0---0~------0-----0~--|----0---0~--------0---0~--|
D----0---0-------0---0-------|------0-------------0-----|
A--3-----------3-------------|--7---------3h5/7---------|
E------------2x--------------|--------------------------|

verse pt. 2
E--------------------------|
B--------------------------|
G----0---0~--------0---0~--|
D------0-------------0-----| 2x
A--7---------3h5/7---------|
E--------------------------|

prechorus pt. 2
E----------------------------|------------------------|
B----------------------0-----|------------------------|
G------0---0~------0-----0~--|----0---0~------0-------|
D----0---0-------0---0-------|------0-------0---0~----|
A--3-----------3-------------|--7---------3-----------|
E------------2x--------------|------------------------|

chorus
E-----------------------------------|----------------------|
B------3-------3-------3-------3----|------3-------3-------|
G----0---0---0---0---0---0---0---0--|----0---0---0---0-----|
D--2-------0---------------0--------|--2-------0-----------|
A------------------3----------------|------------------3~--|
E-----------------------------------|----------------------|
              x4

verse x4
prechorus
verse pt. 2
prechorus pt. 2
chorus

ending
E-------------|-----|
B------3---3--|--3--|
G------0---0--|--0--|
D-------------|-----|
A--0h2--------|-----|
E--------3----|-----|
      x16        x7

Guitar 2

Verse (play nothing)
prechorus (same as guitar 1)
verse pt. 2 (play nothing)
prechorus pt. 2 (same as guitar 1)

chorus
E------3-------3-------2-------3----|------3-------3---------|
B----3---3---3---3---3---3---3---3--|----3---3---3---3-------|
G-----------------------------------|------------------------|
D--2-------0---------------0--------|--2-------0-------------|
A------------------3----------------|------------------3~----|
E---------------4x------------------|------------------------|

verse
prechorus
verse pt. 2
prechorus pt. 2

Chorus
E------2-------3-------2-------3----|------2-------3-------2~----|
B----3---3---3---3---3---3---3---3--|----3---3---3---3---3-------|
G-----------------------------------|----------------------------|
D--2-------0---------------0--------|--2-------0-----------------|
A------------------3----------------|------------------3---------|
E---------------4x------------------|----------------------------|

End
E--------------------------------|-12-10-----------------------------------|
B-----------0-----0-------0------|-------12-10-12-----12-10b-----12-10-----|
G-7/9-7~-------------------------|----------------12~--------12~-------12~-|
D---------9---5~----7-5~----7-5~-|-----------------------------------------|
A--------------------------------|-----------------------------------------|
E--------------------------------|-----------------------------------------|

E--<12>-10~-------------------10~----------------|
B------------<12>--------<12>------<12>----------|
G-----------------<12>~-----------------<12>~----|
D------------------------------------------------|
A------------------------------------------------|
E------------------------------------------------|
Добавлено: 04.10.2013
Другие материалы по этой песне:
  • Аккорды и текст

Страница создана 04.10.2013
http://primanota.ru/northstar/two-zero-tow-chords.htm
Привет, Гость.
Предлагаем пройти революционный курс по гитаре.
Подарок от PrimaNota.Ru, забирай!