PrimaNota.ru - самый крупный в мире бесплатный архив песенных текстов, аккордов, табулатур и нот


Northstar - Train Hopping In Dixieland - таба, видео

Регистрация Запомнить меня
Войти через:  Facebook Google Twitter Vk Yandex Mail.ru

Northstar - Train Hopping In Dixieland - таба, видео

Печатать
Просмотров: 79
Album: Is This Thing Loaded
Title: Train Hopping In Dixieland
Originally Tabbed: al@onedollarshort.zzn.com

Standard Tuning

INTRO/VERSE
GUITAR 1
|------------------------------------------------|---------------------|
|------------------------------------------------|---------------------|
|--555555555555----------------------------------|---------------------|
|--333333333333-555555555555-3333333333333-------|-------5~--3~--------|
|---------------333333333333-1111111111111-------|---3~--3~--1~--------|
|------------------------------------------[x2]--|---1~----------[x2]--|
pm...............................................|____distortion on____|

GUITAR 2
|----5-6-5---5-5h6p5-----------------------------|---------------------|
|------------------------------------------------|---------------------|
|------------------------------------------------|---------------------|
|--3-------3------------[just repeat heaps]------|-------5~--3~--------|
|------------------------------------------------|---3~--3~--1~--------|
|------------------------------------------------|---1~----------[x2]--|
                                                 |____distortion on____|

SOUNDS LIKE A 3rd GUITAR THAT DOES THAT SLIDE INTO THE FIRST F5

VERSE CONT'D
GUITAR 1
|----------------------|----------------------|--------------------|----------------------|
|----------------------|----------------------|--------------------|----------------------|
|----------------------|----------------------|-------/10b---------|----------------------|
|--7-7-7-5-5-5-33--33--|--7-7-7-5-5-5-33--33--|--7-7-7/-X--33--33--|--7-7-7-5-5-5-33--33--|
|--5-5-5-3-3-3-11--11--|--5-5-5-3-3-3-11--11--|--5-5-5/-8b-11--11--|--5-5-5-3-3-3-11--11--|
|----------------------|----------------------|--------------------|----------------------|

Between each Bb5 that GUITAR 1 STRUMS, GUITAR 2 FILLS WITH F octave, i.e,

|-----------------|
|-----------------|
|--10-10---10-10--|
|---X--X----X--X--|
|---8--8----8--8--|
|-----------------|

CHORUS
GUITAR 1
|------------------------------------------------------------------|-------------------------|
|------------------------------------------------------------------|-------------------------|
|------------------------------------------------------------------|-------------------------|
|------------------3-3-3-3-3-3-3-3-----------------3-3-3-3-3-3-3-3-|---------3-3-3-3-7-7-7-7-|
|--3-3-3-3-3-3-3-3-1-1-1-1-1-1-1-1-3-3-3-3-3-3-3-3-1-1-1-1-1-1-1-1-|-3-3-3-3-1-1-1-1-5-5-5-5-|
|--1-1-1-1-1-1-1-1-----------------1-1-1-1-1-1-1-1-----------------|-1-1-1-1-----------------|

|------------------------------------------|
|------------------------------------------|
|------------------------------------7--5--|
|-5-5555-5-5555-5-5555-5-5555-5------X--X--|
|-3-3333-3-3333-3-3333-3-3333-3------5--3--|
|------------------------------------------|
pm ....   ....   ....    ....

GUITAR 2
|------------------------------------------------------|--------------------------------------|
|------------------------------------------------------|--------------------------------------|
|--10-10-10-10-10-12-12-12-12-12-14-14-14-14-14--------|--12-12/14-12-12/14-12-----10~---10~--|
|---X--X--X--X--X--X--X--X--X--X--X--X--X--X--X--------|---X--X--X--X--X--X--X-etc.-X-----X---|
|---8--8--8--8--8-10-10-10-10-10-12-12-12-12-12--------|--10-10/12-10-10/12-10------8~----8~--|
|------------------------------------------------[x3]--|--------------------------------------|

BRIDGE
GUITAR 1 (clean)
|-----|
|-----|
|--5--|
|--3--|
|-----|
|-----|strum x heaps.

THEN pm  F5 D5 C5 a couple of times, then just continuously strum them and finish on F5.
Добавлено: 08.12.2013
Другие материалы по этой песне:
  • Аккорды и текст

Страница создана 08.12.2013
http://primanota.ru/northstar/train-hopping-in-dixieland-chords.htm
Привет, Гость.
Предлагаем пройти революционный курс по гитаре.
Подарок от PrimaNota.Ru, забирай!