PrimaNota.ru - самый крупный в мире бесплатный архив песенных текстов, аккордов, табулатур и нот


Northstar - Taker Not A Giver - текст песни, таба, видео

Регистрация Запомнить меня
Войти через:  Facebook Google Twitter Vk Yandex Mail.ru

Northstar - Taker Not A Giver - текст песни, таба, видео

Печатать
Просмотров: 88
Intro/verse:"If you get the chance to..."

e-------------------------------------------------------------------]
b-------------------------------------------------------------------]
g------5------5-------5-------5-------5------5----------------------]
d----3--3---3---3----3--3---3---3---3---3---3--5------3-----3-------]
a--5------5--------0------0-------3--------3---------3--3--3--3-----]
e-------------------------------------------------1-------1---------]

e-------------------------------------------------------------------------]
b-------------------------------------------------------------------------]
g------5------5-------5-------5-------5------5-------3-------5------------]
d----3--3---3---3----3--3---3---3---3---3---3--5---3---3---5---5---3---3--]
a--5------5--------0------0-------3--------3------1------3--------3-3-3-3-]
e----------------------------------------------------------------1---1----]

Chorus: "so take down my pictures..."

e-----------------------------------------------------------]
b-----------------------------------------------------------]
g--777777----10101010--333---555----------------------------]
d--777777----10101010--333---555--333333--------------------]
a--555555-----8888888--111---333--333333--------------------]
e---------------------------------111111--------------------]

"that way im still seeing you..."

e-----------------------------------------------------]
b-----------------------------------------------------]
g--777777----10101010---------------------------------]
d--777777----10101010----888888-----------------------]
a--555555-----8888888----888888-----------------------]
e------------------------666666-----------------------]

"I needed you tonight but i just couldn't wait.."
e-----------------------------------------------------------]
b-----------------------------------------------------------]
g--777777----10101010--333---555----------------------------]
d--777777----10101010--333---555--333333--------------------]
a--555555-----8888888--111---333--333333--------------------]
e---------------------------------111111--------------------]

"I was loaded and the hammer was ready..."
e-------------------------------------------------------]
b-------------------------------------------------------]
g--777777----10101010-----------------------------------]
d--777777----10101010----88888888-----------------------]
a--555555-----8888888----88888888-----------------------]
e------------------------66666666-----------------------]

"but im not that brave..."
e------------------------------------------------------]
b-----10-10h11-10---------10-----13h11-10h11h10--------]
g---10------------10---10----10-----------------10-----]repeat
d--0-----------------0---------------------------------]
a------------------------------------------------------]
e------------------------------------------------------]
"and I will be the king of the sky..."
e----------------------------------------------------------------]
b----------------------------------------------------------------]
g----------------------------------------------------------------]
d--33333---5555555--000000--33333--------------------------------]
a--33333---5555555--000000--33333--------------------------------]
e--11111---3333333--000000--11111--------------------------------]
 .......   .......  ......  .....


"alone in wonderland..."
e----------------------]
b----------------------]
g-----5-----------------]
d--5~-5-3------------]
a--5~-3-3-------------]
e--3~---1------------]

Interlude to verse...
e------------------------------------------------------------]
b------------------------------------------------------------]
g------------------------------77-55-333333------------------]
d-33333--55555--77777-10101010-77-55-333333------------------]
a-33333--55555--77777-10101010-55-33-111111------------------]
e-11111--33333--55555-8888888--------------------------------]

e------------------------------------------------------------]
b------------------------------------------------------------]
g------------------------------77-55-333333------------------]
d-33333--55555--77777-10101010-77-55-333333------------------]
a-33333--55555--77777-10101010-55-33-111111------------------]
e-11111--33333--55555-8888888--------------------------------]
  .....  .....  .....  .......

e--------------------------------]
b--------------------------------]
g--7~-----5~----7----------------]
d--7~-----5~----7~---------------]repeat
a--5~-----3~----5~---------------]
e--------------------------------]

verse2: "and there are reasons why I..."
e---------------------------------------------------------]
b---------------------------------------------------------]
g------5-----5----5---------------------------------------]
d----3-----3----3-----3-----3-----------------------------]
a--5-----0----3-----3-----3-------------------------------]
e-----------------1-----1---------------------------------]

"numbing my hands down..."
e--------------------------------------------------]
b--------------------------------------------------]
g------5-----5----3----5---------------------------]
d----3-----3-----3---5----3---3--------------------]
a--5-----0----1----3----3----3---------------------]
e---------------------1----1-----------------------]


"My day dream loves the violet..."

e---------------------------------------------------------]
b---------------------------------------------------------]
g------5-----5----5---------------------------------------]
d----3-----3----3-----3-----3-----------------------------]
a--5-----0----3-----3-----3-------------------------------]
e-----------------1-----1---------------------------------]

"and the nightmares..."
e------------------------------------------------------]
b------------------------------------------------------]
g------5-----5----3----5-------------------------------]
d----3-----3-----3---5----3---3----3333----------------]
a--5-----0----1----3----3----3-----3333----------------]
e---------------------1----1-------1111----------------]
                                   ....

"so take that glare back..."
e-----------------------------------------------------------]
b-----------------------------------------------------------]
g--777777----10101010--333---555----------------------------]
d--777777----10101010--333---555--333333--------------------]
a--555555-----8888888--111---333--333333--------------------]
e---------------------------------111111--------------------]

"come part of..."

e-------------------------------------------------------]
b-------------------------------------------------------]
g--777777----10101010-----------------------------------]
d--777777----10101010----88888888-----------------------]
a--555555-----8888888----88888888-----------------------]
e------------------------66666666-----------------------]
                          .. .. .

"i needed you tonight..."

e-----------------------------------------------------------]
b-----------------------------------------------------------]
g--777777----10101010--333---555----------------------------]
d--777777----10101010--333---555--333333--------------------]
a--555555-----8888888--111---333--333333--------------------]
e---------------------------------111111--------------------]

"I was loaded..."
e-------------------------------------------------------]
b-------------------------------------------------------]
g--777777----10101010-----------------------------------]
d--777777----10101010----88888888-----------------------]
a--555555-----8888888----88888888-----------------------]
e------------------------66666666-----------------------]
                          .. .. .

"Im just not that brave..."

e------------------------------------------------------]
b-----10-10h11-10---------10-----13h11-10h11h10--------]
g---10------------10---10----10-----------------10-----]repeat
d--0-----------------0---------------------------------]
a------------------------------------------------------]
e------------------------------------------------------]

go back to "i will be the king of the sky..." 
then interlude...

"i dont plan on you tonight..."

e-------------------------------------------------------]
b-------------------------------------------------------]
g-------333333--777777--555555--------------------------]
d-33333-333333--777777--555555--------------------------]
a-33333-111111--555555--333333--------------------------]
e-11111-------------------------------------------------]



"like you wanted to..."

e----------------------------------------------------------]
b----------------------------------------------------------]
g---------555555--33333333---------------------------------]
d--333333-555555--33333333---------------------------------]
a--333333-333333--11111111---------------------------------]
e--111111--------------------------------------------------]


okay there ya go any questions entirely_smooth_ chick @hotmail.com
Добавлено: 08.07.2013
Другие материалы по этой песне:
  • Аккорды и текст

Страница создана 10.07.2012
http://primanota.ru/northstar/taker-not-a-giver-chords.htm
Привет, Гость.
Предлагаем пройти революционный курс по гитаре.
Подарок от PrimaNota.Ru, забирай!