PrimaNota.ru - самый крупный в мире бесплатный архив песенных текстов, аккордов, табулатур и нот


Northstar - Cinderella - текст песни, таба, видео

Регистрация Запомнить меня
Войти через:  Facebook Google Twitter Vk Yandex Mail.ru

Northstar - Cinderella - текст песни, таба, видео

Печатать
Просмотров: 151
Уроки эстрадного вокала в Санкт-Петербурге
Artist: Northstar
Title: Cinderella

Tuning: DROP D TUNING


GUITAR ONE PARTS: intro to chorus
-------------------------------------------------------------------------------|
e|-----------------------------------------------------------------------------|
B|-----------------------------------------------------------------------------|
G|-----------------------------------------------------------------------------|
D|-----0-----2p0------0------0---------0--------4p0----------------------------|
A|---2---0-0---------------------0--5-5---5-5-5--------------------------------|
D|----------------5-5---5-5-5------------------------5~------------------------|

chorus
e|[x4]-----------------------------------------------------------------------|
B|---------------------------------------------------------------------------|
G|-----------7-7-6-6p5--------7-7-6-6p5--------------------------------------|
D|-5----4-4-------------2-2---------------5----------------------------------|
A|-5----2-2-------------0-0---------------5----------------------------------|
D|-5--------------------------------------5----------------------------------|
..

verse p.m.
e|---------------------------------------------------------------------------------|
B|---------------------------------------------------------------------------------|
G|---------------------------------------------------------------------------------|
D|------4--4--0--2-2h4p2p0--5-5h6p5p0-0~-------4--2-----7--------------------------|
A|--2-2--2----------------------------------------------2--0--5--5--5--------------|
D|---------------------------------------------------------------5-----5-----------|
.. .
chorus
e|[x4]---------------------------------------------------------------------------|
B|-------------------------------------------------------------------------------|
G|----------7-7-6-6p5--------7-7-6-6p5-------------------------------------------|
D|-----4-4-------------2-2----------------5--------------------------------------|
A|-----2-2-------------0-0----------------5--------------------------------------|
D|-----------------------------------------5-------------------------------------|

clean {listen hard} [----------x3----------------------------------------------|
e|-----------------------------------------------------------------------------|
B|-----------------------------------------------------------------------------|
G|----0----------4----0--------------------4------0----------------------------|
D|------4---4-0----0----------4---4---4-0-----0--------------------------------|
A|--2-----2----------2-----------2---2-----------2-----------------------------|
D|-----------------------------------------------------------------------------|

figure the rhthym
e|[x8, p.m. first four]------------------------------------------------------|
B|---------------------------------------------------------------------------|
G|---------------------------------------------------------------------------|
D|--4--2---7-----------------------------------------------------------------|
A|--2--0---5---5-------------------------------------------------------------|
D|-------------5-------------------------------------------------------------|

e|[x4]-----------------------------------------------------------------------|
B|---------------------------------------------------------------------------|
G|----------7-7-6-6p5--------7-7-6-6p5---------------------------------------|
D|-----4-4-------------2-2---------------5~----------------------------------|
A|-----2-2-------------0-0---------------5~----------------------------------|
D|---------------------------------------5~----------------------------------|

GUITAR TWO PARTS: intro
-------------------------------------------------------------------------------|
e|-----------------------------------------------------------------------------|
B|--------8-----------------------8--------------------------------------------|
G|-----7x---7-------7x---------7x---7----7x------------------------------------|
D|---7------------7----------7---------7-----0--7/-----------------------------|
A|-----------------------------------------------------------------------------|
D|-----------------------------------------------------------------------------|


e|----------------------------------------------------------------------------------|
B|------------------------------7-8-7h8p7-----7h8-10-8-7-8-7-8p7--------------------|
G|------------------0---------7-7-7-----------7----------------------7--7p6-6h7-6---|
D|-----5h7-4-----0--0-0--5h7-----------7--7------------------------------------7~---|
A|-5h7-------7-5~-------------------------------------------------------------------|
D|----------------------------------------------------------------------------------|


e|[x2]------------------------------------------------------------------------------|
B|------------------------------7-8-7h8p7---7-8-10-7-8-7----------------------------|
G|------------------0---------7-7-7----------7-7-7--7-7-7-9-7--7p6-6h7-6~-----------|
D|-----5h7-4-----0--0-0--5h7---------------7-7-7--7-7-7-------------------7~--------|
A|-5h7-------7-5~-------------------------------------------------------------------|
D|----------------------------------------------------------------------------------|

chorus
e|[x4]-----------------------------------------------------------------------|
B|---------------------------------------------------------------------------|
G|-----------7-7-6-6p5--------7-7-6-6p5--------------------------------------|
D|-5----4-4-------------2-2---------------5----------------------------------|
A|-5----2-2-------------0-0---------------5----------------------------------|
D|-5--------------------------------------5----------------------------------|
..

2nd verse
e|[x4 p.m.]------------------------------------------------------------------|
B|---------------------------------------------------------------------------|
G|---------------------------------------------------------------------------|
D|--4--2-------7-------------------------------------------------------------|
A|--2--0---5---5---5~--------------------------------------------------------|
D|---------5-------5~--------------------------------------------------------|

chorus
e|[x4]-----------------------------------------------------------------------|
B|---------------------------------------------------------------------------|
G|----------7-7-6-6p5--------7-7-6-6p5---------------------------------------|
D|-----4-4-------------2-2---------------5-----------------------------------|
A|-----2-2-------------0-0---------------5-----------------------------------|
D|---------------------------------------5-----------------------------------|

e|---------------------------------------------------------------------------|
B|---------------------------------------------------------------------------|
G|---------------------------------------------------------------------------|
D|--4~----4~----4~----4~-----------------------------------------------------|
A|--2~----2~----2~----2~-----------------------------------------------------|
D|---------------------------------------------------------------------------|

e|-[x4]----------------------------------------------------------------------|
B|---------------------------------------------------------------------------|
G|----------0---0---0--------------------------------------------------------|
D|-7/---7--------------------------------------------------------------------|
A|--------5---5---5---5------------------------------------------------------|
D|---------------------------------------------------------------------------|

figure the rhthym
e|[x4]-----------------------------------------------------------------------|
B|---------------------------------------------------------------------------|
G|---------------------------------------------------------------------------|
D|--4--2---7-----------------------------------------------------------------|
A|--2--0---5---5-------------------------------------------------------------|
D|-------------5-------------------------------------------------------------|

e|[x4]-----------------------------------------------------------------------|
B|---------------------------------------------------------------------------|
G|----------7-7-6-6p5--------7-7-6-6p5---------------------------------------|
D|-----4-4-------------2-2---------------5-----------------------------------|
A|-----2-2-------------0-0---------------5-----------------------------------|
D|---------------------------------------5-----------------------------------|
Добавлено: 07.11.2013
Другие материалы по этой песне:
  • Аккорды и текст

Страница создана 11.03.2012
http://primanota.ru/northstar/cinderella-chords.htm
Привет, Гость.
Предлагаем пройти революционный курс по гитаре.
Подарок от PrimaNota.Ru, забирай!