PrimaNota.ru - самый крупный в мире бесплатный архив песенных текстов, аккордов, табулатур и нот


Northside - Take 5 - бас-таба, видео

Регистрация Запомнить меня
Войти через:  Facebook Google Twitter Vk Yandex Mail.ru

Northside - Take 5 - бас-таба, видео

Печатать
Просмотров: 91
Уроки эстрадного вокала в Санкт-Петербурге
-------------------------------------------------------------------------------
                             Take 5 - Northside
-------------------------------------------------------------------------------
Tabbed by: Keaten Higham
E-mail: Keaten_h@hotmail.co.uk

Tuning: Standard

Intro

G|--------------------------------------|
D|--------------------------------------|   X2
A|----------3-3-3-3----7-7-7----5-5-7-5-|
E|-3-0-3--------------------------------|

      Main Riff

G|-----------------------------------|
D|-----------------------------------|
A|-----------3-3-3-7-7-7-7-7-5-5-7-5-|    X8
E|-3-0-3-3-3-------------------------|

         Chrous

G|---------------------------------------------------------|
D|---------------------------------------------------------|
A|-3-3-3-3-3-3-3---------------5-5-5-5-5-5-5---------------|
E|---------------3-3-3-3-3-3-3---------------3-3-3-3-3-3-3-|

G|---------------------------------------------------------------------|
D|---------------------------------------------------------------------|
A|-3-3-3-3-3-3-3---------------5-5-5-5-5-5-5-5-5-5-5-5-5-5-5-5-5-5-5-5-|
E|---------------3-3-3-3-3-3-3-----------------------------------------|


   Main Riff

G|-----------------------------------|
D|-----------------------------------|
A|-----------3-3-3-7-7-7-7-7-5-5-7-5-|    Repeat until chorus at 1:30
E|-3-0-3-3-3-------------------------|

 Chrous

G|---------------------------------------------------------|
D|---------------------------------------------------------|
A|-3-3-3-3-3-3-3---------------5-5-5-5-5-5-5---------------|
E|---------------3-3-3-3-3-3-3---------------3-3-3-3-3-3-3-|

G|---------------------------------------------------------------------|
D|---------------------------------------------------------------------|
A|-3-3-3-3-3-3-3---------------5-5-5-5-5-5-5-5-5-5-5-5-5-5-5-5-5-5-5-5-|
E|---------------3-3-3-3-3-3-3-----------------------------------------|

Main Riff

G|-----------------------------------|
D|-----------------------------------|
A|-----------3-3-3-7-7-7-7-7-5-5-7-5-|    Repeat until chorus at 2:20
E|-3-0-3-3-3-------------------------|

 Chrous

G|---------------------------------------------------------|
D|---------------------------------------------------------|
A|-3-3-3-3-3-3-3---------------5-5-5-5-5-5-5---------------|
E|---------------3-3-3-3-3-3-3---------------3-3-3-3-3-3-3-|

G|---------------------------------------------------------------------|
D|---------------------------------------------------------------------|
A|-3-3-3-3-3-3-3---------------5-5-5-5-5-5-5-5-5-5-5-5-5-5-5-5-5-5-5-5-|
E|---------------3-3-3-3-3-3-3-----------------------------------------|

Main Riff

G|-----------------------------------|
D|-----------------------------------|
A|-----------3-3-3-7-7-7-7-7-5-5-7-5-|    Repeat until chorus at 3:10
E|-3-0-3-3-3-------------------------|

 Chrous

G|---------------------------------------------------------|
D|---------------------------------------------------------|
A|-3-3-3-3-3-3-3---------------5-5-5-5-5-5-5---------------|
E|---------------3-3-3-3-3-3-3---------------3-3-3-3-3-3-3-|

G|---------------------------------------------------------------------|
D|---------------------------------------------------------------------|
A|-3-3-3-3-3-3-3---------------5-5-5-5-5-5-5-5-5-5-5-5-5-5-5-5-5-5-5-5-|
E|---------------3-3-3-3-3-3-3-----------------------------------------|

Main Riff

G|-----------------------------------|
D|-----------------------------------|
A|-----------3-3-3-7-7-7-7-7-5-5-7-5-|    Repeat until end
E|-3-0-3-3-3-------------------------|



| /  slide up
| \  slide down
| h  hammer-on
| p  pull-off
| ~  vibrato
| +  harmonic
| x  Mute note
===============================================================================
Добавлено: 08.05.2014
Вам также может быть интересно:
Другие материалы по этой песне:
  • Аккорды и текст

Страница создана 21.11.2013
http://primanota.ru/northside/take-5-chords.htm
Привет, Гость.
Предлагаем пройти революционный курс по гитаре.
Подарок от PrimaNota.Ru, забирай!