PrimaNota.ru - самый крупный в мире бесплатный архив песенных текстов, аккордов, табулатур и нот


Northern Faces - Wait Wait Wait - таба, видео

Регистрация Запомнить меня
Войти через:  Facebook Google Twitter Vk Yandex Mail.ru

Northern Faces - Wait Wait Wait - таба, видео

Печатать
Просмотров: 97
Tabbed by: obesedolphin1
E-mail: obesedolphin16@gmail.com

Tuning:EADGBe

Guitar 1: Intro / Verse
e|--7-7--xx--7-7----7x7--5---------------------------------------------------|
B|--7-7--xx--7-7----8x8--7---------------------------------------------------|
G|--7-7--xx--7-7----9x9--7---------------------------------------------------|
D|--9-9--xx--9-9----9x9--7---------------------------------------------------|
A|--9-x--xx--9-x----7x7--5---------------------------------------------------|
E|--7-x--xx--7-x----7x7--5---------------------------------------------------|
    Bm              Em   D

Guitar 2: (0:09),(1:00),(3:09)
e|----------------------------------|--------------|--------10---------------|
B|----------------------------------|-12-12s15-12--|--12-12-12---------------|
G|-9-9-11-11-9-9-9-7----9-9-11-11-9-|--------------|-------------------------|
D|----------------------------------|--------------|-------------------------|
A|----------------------------------|--------------|-------------------------|
E|----------------------------------|--------------|-------------------------|
                                     First 2 Times    Final Time

Guitar 1: (1:28)
e|---7--------|--7--7--7-x-7-----7--7----------------------------------------|
B|---7--------|--7--7--7-x-7-----7--7------7-9b11----------------------------|
G|---7--------|--7--7--7-x-7-----7--7--7h9--9--------------------------------|
D|---9--------|--9--9------------9--9----------------------------------------|
A|---9-(1:35)-|--9--9------------9--9-------------x2-------------------------|
E|---7--------|--7--7------------7--7----------------------------------------|

Guitar 1: (1:52-2:09)
e|--7-x-7-x-7-x-7-x-7-x-7-x-7-x-7-x-7-x-7-x-7-x-7-x-7-x-7-x-7-x-7------------|
B|--7-x-7-x-7-x-7-x-7-x-7-x-7-x-7-x-7-x-7-x-7-x-7-x-7-x-7-x-7-x-7------------|
G|--7-x-7-x-7-x-7-x-7-x-7-x-7-x-7-x-7-x-7-x-7-x-7-x-7-x-7-x-7-x-7------------|
D|---------------------------------------------------------------------------|
A|---------------------------------------------------------------------------|
E|---------------------------------------------------------------------------|

Guitar 1: (2:09)
e|---------------------------------------------------------------------------|
B|--10-10s12-12-12s7--10-10s12-12-12s5-5s7-7---------------------------------|
G|---------------------------------------------------------------------------|
D|---------------------------------------------------------------------------|
A|---------------------------------------------------------------------------|
E|---------------------------------------------------------------------------|

Guitar 2: (2:09)
e|---------------------------------------------------------------------------|
B|--9-9-9-9-7-7-9-9-9-9-9-9-7-7-9-9-9-9-7-7-9-9-9-9-9-9-7-7-9-9-9-9-7-7-9-9--|
G|---------------------------------------------------------------------------|
D|---------------------------------------------------------------------------|
A|---------------------------------------------------------------------------|
E|---------------------------------------------------------------------------|

e|---------------------------------------------------------------------------|
B|--9-9-9-9-7-7-14-14-14-14-14-12-11-11-11-11-11-7-7-7-----------------------|
G|---------------------------------------------------------------------------|
D|---------------------------------------------------------------------------|
A|---------------------------------------------------------------------------|
E|---------------------------------------------------------------------------| x3

Guitar 1: (2:43-2:52)
e|--7-7-7-7-7-7-7-7-7-7-7-7-7-7-7-7-7-7-7-7-7-7-7-7-7-7-7--------------------|
B|--7-7-7-7-7-7-7-7-7-7-7-7-7-7-7-7-7-7-7-7-7-7-7-7-7-7-7-10b12r-------------|
G|--7-7-7-7-7-7-7-7-7-7-7-7-7-7-7-7-7-7-7-7-7-7-7-7-7-7-7--------------------|
D|---------------------------------------------------------------------------|
A|---------------------------------------------------------------------------|
E|---------------------------------------------------------------------------|


************************************

| /   slide up
| \   slide down
| h   hammer-on
| p   pull-off
| ~   vibrato
| +   harmonic
| x   Mute note
| b   Bend
| pb  Pre-bend
| br  Bend release
| pbr Pre-bend release
| brb Bend release bend

************************************
Добавлено: 15.08.2015
Другие материалы по этой песне:
  • Аккорды и текст

Страница создана 15.08.2015
http://primanota.ru/northern-faces/wait-wait-wait-chords.htm
Привет, Гость.
Предлагаем пройти революционный курс по гитаре.
Подарок от PrimaNota.Ru, забирай!