PrimaNota.ru - самый крупный в мире бесплатный архив песенных текстов, аккордов, табулатур и нот


Northeast Party House - Youth Allowance - таба, видео

Регистрация Запомнить меня
Войти через:  Facebook Google Twitter Vk Yandex Mail.ru

Northeast Party House - Youth Allowance - таба, видео

Печатать
Просмотров: 45
-------------------------------------------------------------------------------
                             YOUTH ALLOWANCE - Northeast Party House
-------------------------------------------------------------------------------
Tabbed by: NorthEastBoy
Email: northeastpartyboy@gmail.com

Tuning: Standard Tuning

INTRO

Lead Guitar
e|---------|
B|---------|
G|-19-19b--| x4
D|---------|
A|---------|
E|---------|

VERSE 1

"Back to being miserable, trapped like criminals..."

Lead Guitar
e|---------|
B|---------|
G|-19-19b--| x8
D|---------|
A|---------|
E|---------|

Rhythm Guitar
e|---------------------------------------------------------------------|
B|---------------------------------------------------------------------|
G|---------------------------------------------------------------------| x2
D|-12--12--12-12--12----10-(x2)---8--8--8-8--8----7-5--5--5-5--5----5--|
A|-12--12--12-12--12----10--------8--8--8-8--8----7-5--5--5-5--5----7--|
E|-10--10--10-10--10----8---------6--6--6-6--6----5-3--3--3-3--3----7--|

"Slick with the residue, down to the dirty few..."

Lead Guitar
e|----------|
B|-(6)-(6)--|
G|--7---7b--| x8
D|----------|
A|----------|
E|----------|

Rhythm Guitar
e|----------------------------------------------------------------------|
B|----------------------------------------------------------------------|
G|----------------------------------------------------------------------| x2 *DON'T PLAY CHORD 2ND TIME*
D|-12--12--12-12--12----10-(x2)---8--8--8-8--8----7-5--5--5-5--5----5*--|
A|-12--12--12-12--12----10--------8--8--8-8--8----7-5--5--5-5--5----7---|
E|-10--10--10-10--10----8---------6--6--6-6--6----5-3--3--3-3--3----7---|

PRE CHORUS

"White gold drips down your thighs..."

Lead Guitar
e|---------------------------------------------------------------------------|
B|---------------------------------------------------------------------------|
G|-19-19-19-19-(x3)-22-22-22-22-(x1)-21-21-21-21-(x4)-22-22-22-22-(x8)-------| 
D|---------------------------------------------------------------------------|
A|---------------------------------------------------------------------------|
E|---------------------------------------------------------------------------|

Rhythm Guitar
e|--------------------------------------------------------------------------|
B|--------------------------------------------------------------------------|
G|--------------------------------------------------------------------------|
D|-8--8--8--8----8-12--12--12--12----12-10--10--10--10----10-10--10--10--10-|
A|-8--8--8--8----8-12--12--12--12----12-10--10--10--10----10-10--10--10--10-|
E|-6--6--6--6----6-10--10--10--10----10-8---8---8---8-----8--8---8---8---8--|

"Ecstasy's in your mind..."

Lead Guitar
e|---------------------------------------------------------------------------|
B|---------------------------------------------------------------------------|
G|-19-19-19-19-(x3)-22-22-22-22-(x1)-21-21-21-21-(x4)-22-22-22-22-(x8)-------| 
D|---------------------------------------------------------------------------|
A|---------------------------------------------------------------------------|
E|---------------------------------------------------------------------------|

Rhythm Guitar
e|----------------------------------------------------------------------|
B|----------------------------------------------------------------------|
G|----------------------------------------------------------------------|
D|-8--8--8--8----8-5--5--5--5----5-12--12--12--12----12-12--12--12--12--|
A|-8--8--8--8----8-5--5--5--5----5-12--12--12--12----12-12--12--12--12--|
E|-6--6--6--6----6-3--3--3--3----3-10--10--10--10----10-10--10--10--10--|

CHORUS

"Let's all get on youth allowance..."

Lead Guitar
e|-------------------------------------------------------|
B|-------------------------------------------------------|
G|-7-7-7-7--7-7-7-7--7-7--7-7-7-7--pb7-pb7-pb7-pb7--7-7--| x2
D|-------------------------------------------------------|
A|-------------------------------------------------------|
E|-------------------------------------------------------|

Rhythm Guitar
e|-------------------------------------------------------|
B|-------------------------------------------------------|
G|-7-7-7-7--7-7-7-7--7-7--7-7-7-7--pb7-pb7-pb7-pb7--7-7--| x2
D|-------------------------------------------------------|
A|-------------------------------------------------------|
E|-------------------------------------------------------|

"We can sit on youth allowance..."

Lead Guitar
e|--------------------------|
B|--------------------------|
G|-19br-19br--19br-19br\17--| x2
D|--------------------------|
A|--------------------------|
E|--------------------------|

Rhythm Guitar
e|-------------------------------------------------------|
B|-------------------------------------------------------|
G|-7-7-7-7--7-7-7-7--7-7--7-7-7-7--pb7-pb7-pb7-pb7--7-7--| x2
D|-------------------------------------------------------|
A|-------------------------------------------------------|
E|-------------------------------------------------------|

POST CHORUS

Lead Guitar
e|---------|
B|---------|
G|-19-19b--| x8
D|---------|
A|---------|
E|---------|

Rhythm Guitar
e|---------------------|
B|---------------------|
G|---------------------| x2
D|---------------------|
A|---------------------|
E|-19\----3br-3br-3br--|

VERSE 2

"I'm in the thick of it, sweat dripping off of this..."

Lead Guitar
e|-------|
B|-------|
G|-7-7b--| x8
D|-------|
A|-------|
E|-------|

Rhythm Guitar
e|----------------------------------------------------------------------|
B|----------------------------------------------------------------------|
G|----------------------------------------------------------------------| x2 *DON'T PLAY CHORD 2ND TIME*
D|-12--12--12-12--12----10-(x2)---8--8--8-8--8----7-5--5--5-5--5----5*--|
A|-12--12--12-12--12----10--------8--8--8-8--8----7-5--5--5-5--5----7---|
E|-10--10--10-10--10----8---------6--6--6-6--6----5-3--3--3-3--3----7---|

PRE CHORUS - same as previous

CHORUS

"Let's all get on youth allowance..."

Lead Guitar
e|-------------------------------------------------------|
B|-------------------------------------------------------|
G|-7-7-7-7--7-7-7-7--7-7--7-7-7-7--pb7-pb7-pb7-pb7--7-7--| x2
D|-------------------------------------------------------|
A|-------------------------------------------------------|
E|-------------------------------------------------------|

Rhythm Guitar
e|-------------------------------------------------------|
B|-------------------------------------------------------|
G|-7-7-7-7--7-7-7-7--7-7--7-7-7-7--pb7-pb7-pb7-pb7--7-7--| x2
D|-------------------------------------------------------|
A|-------------------------------------------------------|
E|-------------------------------------------------------|

"We can sit on youth allowance..."

Lead Guitar
e|--------------------------|
B|--------------------------|
G|-19br-19br--19br-19br\17--| x6
D|--------------------------|
A|--------------------------|
E|--------------------------|

Rhythm Guitar
e|-------------------------------------------------------|
B|-------------------------------------------------------|
G|-7-7-7-7--7-7-7-7--7-7--7-7-7-7--pb7-pb7-pb7-pb7--7-7--| x6
D|-------------------------------------------------------|
A|-------------------------------------------------------|
E|-------------------------------------------------------|

BRIDGE

There is a lot going on here but it's mostly bass and drums - you could add this guitar part if you wanted but
I think it sounds better without.

"Ecstasy's in your mind..."

Lead Guitar
e|-----------------------------------------------|
B|-----------------------------------------------|
G|-19~----19b~--19pbr~----19~----19b~--19pbr\17--| x2
D|-----------------------------------------------|
A|-----------------------------------------------|
E|-----------------------------------------------|

CHORUS

"Let's all get on youth allowance..."

Lead Guitar
e|------|
B|------|
G|-19b--| x8 (They use a pitch dive but if you just bend the string as hard as you can it sounds alright)
D|------|
A|------|
E|------|

Rhythm Guitar
e|-------------------------------------------------------|
B|-------------------------------------------------------|
G|-7-7-7-7--7-7-7-7--7-7--7-7-7-7--pb7-pb7-pb7-pb7--7-7--| x4
D|-------------------------------------------------------|
A|-------------------------------------------------------|
E|-------------------------------------------------------|

"We can sit on youth allowance..."

Lead Guitar
e|---------------------------------------------------------------------------|
B|---------------------------------------------------------------------------|
G|-19-19-19-19--19-19-19-19--19-19--19-19-19-19--pb19-pb19-pb19-pb19--19-19--| x4
D|---------------------------------------------------------------------------|
A|---------------------------------------------------------------------------|
E|---------------------------------------------------------------------------|

Rhythm Guitar
e|-------------------------------------------------------|
B|-------------------------------------------------------|
G|-7-7-7-7--7-7-7-7--7-7--7-7-7-7--pb7-pb7-pb7-pb7--7-7--| x4
D|-------------------------------------------------------|
A|-------------------------------------------------------|
E|-------------------------------------------------------|

OUTRO

Here I normally just throw on some delay and mess around with some of the lead parts and it sounds sick. Not 
sure about the notes they play but anything sounds pretty good really.

I've written the tab for a guitar with no effects, so the lead might sound a little off if you're playing with 
the recording. If you do have some effects, mess around with the modulation (pitch dive, octave, delay) for the
lead guitar.

************************************

| /   slide up
| \   slide down
| h   hammer-on
| p   pull-off
| ~   vibrato
| +   harmonic
| ()  ghost note
| x   Mute note
| b   Bend
| pb  Pre-bend
| br  Bend release
| pbr Pre-bend release
| brb Bend release bend

************************************
Добавлено: 01.04.2016
Другие материалы по этой песне:
  • Аккорды и текст

Страница создана 01.04.2016
http://primanota.ru/northeast-party-house/youth-allowance-chords.htm
Привет, Гость.
Предлагаем пройти революционный курс по гитаре.
Подарок от PrimaNota.Ru, забирай!