PrimaNota.ru - самый крупный в мире бесплатный архив песенных текстов, аккордов, табулатур и нот


Northeast Party House - Fake Friends - бас-таба, видео

Регистрация Запомнить меня
Войти через:  Facebook Google Twitter Vk Yandex Mail.ru

Northeast Party House - Fake Friends - бас-таба, видео

Печатать
Просмотров: 76
Уроки эстрадного вокала в Санкт-Петербурге
-------------------------------------------------------------------------------
                             TINDERBOX - Violent Soho
-------------------------------------------------------------------------------
Tabbed by: TheOffspring24

Tuning: Standard (EADG)

This is the bass tab for Fake Friends by Northeast Party House whilst there are no live videos 
or lessons online I can only assume this is correct but it seems like the most logical way to 
play it. Hope you enjoy!!!

Go buy Northeast Party House's debut self titled EP and their debut album Any Given Weekend!

By the way, there are hardly any tabs for Northeast Party House so post some if you know any! 

Main riff

G------------------
D-------------9-----
A-5-7--5-7----------
E----------77---7757

Chorus

G--------------------------
D--------------------------
A-55-77----------55--------
E-------777-7/33----777-7/3

Repeat main riff for however many times necessary

No bass in interlude/bridge

Repeat main riff and proceed to play chorus riff



************************************
Добавлено: 01.04.2016
Другие материалы по этой песне:
  • Аккорды и текст

Страница создана 01.04.2016
http://primanota.ru/northeast-party-house/fake-friends-chords.htm
Привет, Гость.
Предлагаем пройти революционный курс по гитаре.
Подарок от PrimaNota.Ru, забирай!