PrimaNota.ru - самый крупный в мире бесплатный архив песенных текстов, аккордов, табулатур и нот


North Point - I Will Rest - аккорды и текст, видео

Регистрация Запомнить меня
Войти через:  Facebook Google Twitter Vk Yandex Mail.ru

North Point - I Will Rest - аккорды и текст, видео

Печатать
Просмотров: 167
Уроки эстрадного вокала в Санкт-Петербурге
I Will Rest
North Point
North Point InsideOut: Hear(2015)
I Will Rest
Adam Kersh


Intro: E   B   C#m    A

Verse 1: 
       E             B
Not my will, but Yours
        C#m              A
Not my strength, but Yours
          E                    B
Lift my eyes to see, all the plans you have, 
    C#m    A
For me, Jesus


Interlude: E   B   C#m   A

Verse 2:
         E          B
Take my life, its Yours
       C#m       A
Every step, secured
     E                       B
You know the past, yet your love outlasts 
    C#m       A
My fears, Jesus

Chorus:
        A                          E
I will rest in the promise of Your grace
        C#m                       B
I will boast in the power of Your name
        A                    (B) 
In my weakness you are strong, 
   C#m                     B
My faith will carry on in You


Interlude:  E   B   C#m   A

Verse 3:
           E          B
When all I hear, is noise
         C#m           A
God may clear, your voice
         E                    B 
Lift my eyes to see, all the plans you have,
    C#m     A
For me, Jesus

Chorus:
         A                           E
I will rest in the promise of Your grace
         C#m                       B
I will boast in the power of Your name
         A                     (B)
In my weakness you are strong, 
   C#m                     B       F#m   A   E   B
My faith will carry on in You


Bridge 1: (2x)
    F#m                  A
You are the rock, it's where I stand
       E                  B
Your grace for me, will never end 
     F#m              A
All fear is gone, it has no place
    E            B
In You alone, I find my strength

Bridge 2: 
        F#m                 A
God You are the rock, it's where I stand
       E                 B
Your grace for me, will never end 
     F#m               A
All fear is gone, it has no place
     E            B
In You alone, I find my strength


Chorus: (2x)
        A                           E
I will rest in the promise of Your grace
        C#m                        B
I will boast in the power of Your name
         A                    (B)
In my weakness you are strong, 
    C#m                    B         A(let ring)
My faith will carry on in You



----------------------------------------------Tab-------------------------------------------------- 

Intro:   E                 B    C#m      A
e|---------0-----0------------------------0----------------------------------|
B|-----------9-----9---9---(7x)-------------9---7h9-7------------------------|
G|-------9-----9-----9------------------9-----9-------9----------------------|
D|---------------------------------------------------------------------------|
A|---------------------------------------------------------------------------|
E|---------------------------------------------------------------------------|

Intro riff continues into verses

Interlude:  E          B            C#m            A   
e|------------------7~-----------9~-----------7~-----------------------------|
B|-------------7/9---------7/9-----------7/9-----------(9-7)-----------------|
G|-----------------------------------------------------------(9-6-9)---------|
D|---------------------------------------------------------------------------|
A|---------------------------------------------------------------------------|
E|---------------------------------------------------------------------------|
                         this part optional, sounds nice^^^^^^^^^^^^^^


For Chorus(and for rhythm guitar throughout), choose either power chords or open chords:
     E        E(open)        B        B(open)     C#m       C#m(open)       A      A(open)
e|---X----   e---0----   e---X----   e---0---   e---X---   e---0-----   e---X---   e---0---
B|---X----   B---0----   B---X----   B---0---   B---X---   B---0-----   B---X---   B---0---
G|---9----   G---9----   G--(8)---   G---8---   G---X---   G---9-----   G--(6)--   G---6---
D|---9----   D---9----   D---9----   D---9---   D--11---   D---9-----   D---7---   D---7---
A|---7----   A---7----   A---9----   A---x---   A--11---   A---x-----   A---7---   A---x---
E|--(0)---   E--(0)---   E---7----   E---7---   E---9---   E---9-----   E---5---   E---5---


Bridge:   F#m         A          E          B   (For this progression, play power chords)
e|---7/9--------------7------------------------------------------------|
B|-----------------\5----------7/9------7--7---------------------------|
G|--------------------------------------9--8---------------------------|      (3x)  
D|-------------------------------------(9)(9)--------------------------|     
A|---------------------------------------------------------------------|
E|---------------------------------------------------------------------|
Добавлено: 18.05.2016
Вам также может быть интересно:
Другие материалы по этой песне:
  • Аккорды и текст

Страница создана 18.05.2016
http://primanota.ru/north-point/i-will-rest-chords.htm
Привет, Гость.
Предлагаем пройти революционный курс по гитаре.
Подарок от PrimaNota.Ru, забирай!