PrimaNota.ru - самый крупный в мире бесплатный архив песенных текстов, аккордов, табулатур и нот


North Korea - Deliver Me - бас-таба, видео

Регистрация Запомнить меня
Войти через:  Facebook Google Twitter Vk Yandex Mail.ru

North Korea - Deliver Me - бас-таба, видео

Печатать
Просмотров: 113
-------------------------------------------------------------------------------
                            Deliver Me - NORTH KOREA
-------------------------------------------------------------------------------
Tabbed by: BASSPLAYER27

Tuning: Half Step Down

Bass comes in at 0:33
Intro Verse
G|---------------------------------------------------------------------------|
D|---------------------------------------------------------------------------|
A|-8~--5~--------------------------------------------------------------------|
E|---------------------------------------------------------------------------|

     Time 0:45 Chorus
G|---------------------------------------------------------------------------|
D|---------------------------------------------------------------------------|
A|-------333333----------------5555555555555-55555555555585------------------|
E|-555555------1111111111111111-------------5--------------------------------|

G|---------------------------------------------------------------------------|
D|------10--12-----10--12----------------------------------------------------|
A|-10-12--12--10-12--12------------------------------------------------------|
E|---------------------------------------------------------------------------|
Verse 1:18
G|---------------------------------------------------------------------------|
D|---------------------------------------------------------------------------|
A|-8~---5x5~--------------------------8~-----5~------------------------------|
E|---------------------------------------------------------------------------|
Chorus 1:49
G|---------------------------------------------------------------------------|
D|---------------------------------------------------------------------------|
A|-------333333----------------5555555555555-55555555555585------------------|
E|-555555------1111111111111111-------------5--------------------------------|
   
Bridge: 2:31
G|---------------------------------------------------------------------------|
D|---------------------------------------------------------------------------|
A|-----5-5--------------3-5--3-55----3/121212--------------------------------|
E|-5-5-----3-3--3555--35-5--5-5--33------------------------------------------|

G|---------------------------------------------------------------------------|
D|---------------------------------------------------------------------------|
A|-888888----555555555555555-585----888888------5555555555555555555----------|
E|-------8888---------------8---85--------888888-----------------------------|
Chorus
G|---------------------------------------------------------------------------|
D|---------------------------------------------------------------------------|
A|-------333333----------------5555555555555-55555555555585------------------|
E|-555555------1111111111111111-------------5--------------------------------|




| /  slide up
| \  slide down
| h  hammer-on
| p  pull-off
| ~  vibrato
| +  harmonic
| x  Mute note
===============================================================================
Добавлено: 25.11.2015
Другие материалы по этой песне:
  • Аккорды и текст

Страница создана 25.11.2015
http://primanota.ru/north-korea/deliver-me-chords.htm
Привет, Гость.
Предлагаем пройти революционный курс по гитаре.
Подарок от PrimaNota.Ru, забирай!