PrimaNota.ru - самый крупный в мире бесплатный архив песенных текстов, аккордов, табулатур и нот


Norman Palm - Boys Dont Cry - таба, видео

Регистрация Запомнить меня
Войти через:  Facebook Google Twitter Vk Yandex Mail.ru

Norman Palm - Boys Dont Cry - таба, видео

Печатать
Просмотров: 85
Norman Palm - Boys Don't Cry (Cure Cover)

Some of the tabs are pretty redundant except for minor variations. 
I've tried highlighting the differences with v's above the tabs
If you spot any mistakes, leave them in the comments. I'll correct the tabs in time.

Also the song is probably a lot easier to play if you have a capo on the 3rd fret.
I don't have one, so the notation is for standard tuning. It's not too hard either way.

Have fun! ;-)


Intro
E|-----3------|            |------------|
B|--4-----4--4|            |--4--4--4--4|
G|------------|            |------------|
D|------------|            |------------|
A|6--6--6--6--|            |6--6--6--6--|
E|------------| 3x         |------------|


Instrumental 1
E|-----3------|-----4------|-----3------|-----4------|
B|--4-----4--4|--4-----4--4|--------3--3|--4-----4--4|
G|------------|------------|--3---------|------------|
D|------------|3--3--3--3--|------------|6--6--6--6--|
A|6--6--6--6--|------------|------------|------------|
E|------------|------------|3--3--3--3--|------------|

E|-----3------|-----4------|-----3------|-----4-----6|-----4------|
B|--4-----4--4|--4-----4--4|--------3--3|--4-----4--4|--4--4--4--4|
G|------------|------------|--3---------|------------|------------|
D|------------|3--3--3--3--|------------|6--6--6--6--|6--6--6--6--|
A|6--6--6--6--|------------|------------|------------|------------|
E|------------|------------|3--3--3--3--|------------|------------|


Verse 1
E|-----3------|-----4------|-----3------|-----4------|
B|--4-----4--4|--4-----4--4|--------3--3|--4-----4--4|
G|------------|------------|--3---------|------------|
D|------------|3--3--3--3--|------------|6--6--6--6--|
A|6--6--6--6--|------------|------------|------------|
E|------------|------------|3--3--3--3--|------------| 2x


Pre-Chorus
E|-----3------|-----4------|
B|--------3--3|--4-----4--4|
G|--3---------|------------|
D|------------|3--3--3--3--|
A|------------|------------|
E|3--3--3--3--|------------| 3x

E|-----3------|-----4-----6|-----4------|
B|--------3--3|--4-----4--4|--4--4--4--4|
G|--3---------|------------|------------|
D|------------|6--6--6--6--|6--6--6--6--|
A|------------|------------|------------|
E|3--3--3--3--|------------|------------|


Chorus 1
E|-----3------|-----4------|-----3------|-----4------|
B|--4-----4--4|--4-----4--4|--------3--3|--4-----4--4|
G|------------|------------|--3---------|------------|
D|------------|3--3--3--3--|------------|6--6--6--6--|
A|6--6--6--6--|------------|------------|------------|
E|------------|------------|3--3--3--3--|------------|

                                                    v      v
E|-----3------|-----4------|-----3------|-----4-----4|-----6------|
B|--4-----4--4|--4-----4--4|--------3--3|--4-----4--4|--4--4--4--4|
G|------------|------------|--3---------|------------|------------|
D|------------|3--3--3--3--|------------|6--6--6--6--|6--6--6--6--|
A|6--6--6--6--|------------|------------|------------|------------|
E|------------|------------|3--3--3--3--|------------|------------|


Verse 2


Pre-Chorus


Chorus 2
E|-----3------|-----4------|-----3------|-----4------|
B|--4-----4--4|--4-----4--4|--------3--3|--4-----4--4|
G|------------|------------|--3---------|------------|
D|------------|3--3--3--3--|------------|6--6--6--6--|
A|6--6--6--6--|------------|------------|------------|
E|------------|------------|3--3--3--3--|------------|

                                                                  v
E|-----3------|-----4------|-----3------|-----4-----6|-----4------|-...
B|--4-----4--4|--4-----4--4|--------3--3|--4-----4--4|--4--4--4--3/4...
G|------------|------------|--3---------|------------|------------|-...
D|------------|3--3--3--3--|------------|6--6--6--6--|6--6--6--6--|6...
A|6--6--6--6--|------------|------------|------------|------------|-...
E|------------|------------|3--3--3--3--|------------|------------|-...


Instrumental 2 - as Chorus 2


Verse 3


Bridge
E|-----6------|-----3------|-----6------|-----3------|
B|--------3--3|--4-----4--4|--3-----3--3|--4-----4--4|
G|--3---------|------------|------------|------------|
D|------------|6--6--6--6--|------------|------------|
A|------------|------------|------------|3--3--3--3--|
E|6--6--6--6--|------------|6--6--6--6--|------------|

E|-----3------|-----4------|------6-----|------------|
B|--3-----3--3|--4-----4--4|--3-----3---|3-----------|
G|------------|------------|----------3-|------------|
D|------------|6--6--6--6--|------------|------------|
A|------------|------------|------------|------------|
E|3--3--3--3--|------------|6---6-------|------------|


Verse 4? - as Trombone 1


Chorus - Outro
E|-----3------|-----4------|-----3------|-----4------|
B|--4-----4--4|--4-----4--4|--------3--3|--4-----4--4|
G|------------|------------|--3---------|------------|
D|------------|3--3--3--3--|------------|6--6--6--6--|
A|6--6--6--6--|------------|------------|------------|
E|------------|------------|3--3--3--3--|------------| 7x

                                         rit......................
E|-----3------|-----4------|-----3------|------------|------------|
B|--4-----4--4|--4-----4--4|--------3--3|------4-----|------------|
G|------------|------------|--3---------|3-----3-3-3-|3-----------|
D|------------|3--3--3--3--|------------|5-----5-5-5-|5-----------|
A|6--6--6--6--|------------|------------|------------|6-----------|
E|------------|------------|3--3--3--3--|------------|------------|
Добавлено: 29.12.2015
Другие материалы по этой песне:
  • Аккорды и текст

Страница создана 29.12.2015
http://primanota.ru/norman-palm/boys-dont-cry-chords.htm
Привет, Гость.
Предлагаем пройти революционный курс по гитаре.
Подарок от PrimaNota.Ru, забирай!