PrimaNota.ru - самый крупный в мире бесплатный архив песенных текстов, аккордов, табулатур и нот


Normaal - Lastpost - аккорды и текст, видео

Регистрация Запомнить меня
Войти через:  Facebook Google Twitter Vk Yandex Mail.ru

Normaal - Lastpost - аккорды и текст, видео

Печатать
Просмотров: 169
Уроки эстрадного вокала в Санкт-Петербурге
Lastpost
Normaal
Slide intro:  
      A                G              D                                      
e|----------------------------------------10-~8------------~10--|
B|--------~5-~5------3-3-3-~1---------~10-------~10----~10-----~|
G|----~3--------~5------------3-~1----~10-----------~8----------|
D|--5----5---------~5--------------~3-~10-----------------------|
A|--------------------------------------------------------------|
E|--------------------------------------------------------------|

    A           G               D              
e|----------------------------------10-~8------------~10--|
B|-~5-~5-------3-3-3-~1---------~10-------~10----~10------|
G|-------~5-------------3-~1----~10-----------~8----------|
D|----------~5---------------~3-~10-----------------------|
A|--------------------------------------------------------|
E|--------------------------------------------------------|


A                            G          D
's oavens in 't café heffe ruzie op de plee
A                                       G                   D
hi-j gooit de wasbak op de grond, de scharven vliegt in 't rond
G                          D          A
iederene zeg : "loat 'm asterblief-e goan"

A                                  G              D
i-j zeet 't 'm neet an, moar gin mense maakt 'm bang
A                                     G                  D
ieder weekend geet 't d'r heer, dan geet-e as een gek tekeer
G                                D           A
iederene zeg : "waad ow want de boy is weer los"

A                           
hi-j is een lastpost (wet i-j wat hi-j is)
een grote lastpost (oaveral woar hi-j geet)
G                      D                     A
oaveral woar die geet doar zie-j de politie niet

Solo:
D | A | D | A | A | G | D |

A
hie is een lastpost (wet i-j wat hi-j is)
een grote lastpost ('n grote lillekerd)
D
hie is een lastpost (wat een kreng)
A
een grote lastpost oaveral woar hi-j geet 
G                      D                     A
oaveral woar die geet doar zie-j de politie niet 
G                      D                     A
oaveral woar die geet doar zie-j de politie niet
D                      
doar zie-j de politie niet


Outro slide:
      A                G              D                         A           G               D              
e|----------------------------------------10-~8------------~10-----------------------------------|
B|--------~5-~5------3-3-3-~1---------~10-------~10----~10-----~5-~5-------3-3-3-~1---------~10--|
G|----~3--------~5------------3-~1----~10-----------~8---------------~5-------------3-~1----~10--|
D|--5----5---------~5--------------~3-~10-------------------------------~5---------------~3-~10--|
A|-----------------------------------------------------------------------------------------------|
E|-----------------------------------------------------------------------------------------------|

||Als je um leuk vindt, reet um dan even. Alvast bedankt||
Добавлено: 19.07.2015
Другие материалы по этой песне:
  • Аккорды и текст

Страница создана 19.07.2015
http://primanota.ru/normaal/lastpost-chords.htm
Привет, Гость.
Предлагаем пройти революционный курс по гитаре.
Подарок от PrimaNota.Ru, забирай!