PrimaNota.ru - самый крупный в мире бесплатный архив песенных текстов, аккордов, табулатур и нот


Normaal - Deur Dondere - таба, бас-таба, видео

Регистрация Запомнить меня
Войти через:  Facebook Google Twitter Vk Yandex Mail.ru

Normaal - Deur Dondere - таба, бас-таба, видео

Печатать
Просмотров: 137
e|-------------------------------------------|
B|-------------------------------------------|
G|-------------------------------------------|
D|-------------------------------------------|
A|---------2-2-2-4-2-0---------2-2-2---------|
E|-0-0-2h4-------------0-0-2h4-------4-2-2---|

e|-------------------------------------------|
B|-------------------------------------------|
G|-------------------------------------------|
D|-------------------------------------------|
A|---------2-2-2-4-2-0-----------------------|
E|-0-0-2h4-------------0-0-2h4-4-2-2-0-------|

bij de tweede keer van gitaar 1 speelt gitaar 2 dit
riff 2
e|-0-0-0-4-7-7-7-9-7-5-0-0-0-4-7-7-7-4-2-2---|
B|-------------------------------------------|
G|-------------------------------------------|
D|-------------------------------------------|
A|-------------------------------------------|
E|-------------------------------------------|

e|-0-0-0-4-7-7-7-9-7-5-0-0-0-4-4-2-2-0-------|
B|-------------------------------------------|
G|-------------------------------------------|
D|-------------------------------------------|
A|-------------------------------------------|
E|-------------------------------------------|
Добавлено: 09.06.2016
Другие материалы по этой песне:
  • Аккорды и текст

Страница создана 28.05.2012
http://primanota.ru/normaal/deur-dondere-chords.htm
Привет, Гость.
Предлагаем пройти революционный курс по гитаре.
Подарок от PrimaNota.Ru, забирай!