PrimaNota.ru - самый крупный в мире бесплатный архив песенных текстов, аккордов, табулатур и нот


Norma Tanega - Youre Dead - аккорды и текст, видео

Регистрация Запомнить меня
Войти через:  Facebook Google Twitter Vk Yandex Mail.ru

Norma Tanega - Youre Dead - аккорды и текст, видео

Печатать
Просмотров: 681
Уроки эстрадного вокала в Санкт-Петербурге
Авторы музыки: Norma Kutzer

Youre Dead
Norma Tanega
"You're Dead" - Norma Tanega
https://www.youtube.com/watch?v=e0TwGWIu8gE

This song is very tricky, the recordings I could found are real bad and the way Tanega
plays is out of concept. What you need to know and what is recognizable by the track
is that Tanega plays only strings while singing which then end up in full chords.
I haven't found out if this is due to a second guitar, but I think she plays it alone
and it's played on only one guitar. Still there is a easier way, intead of playing 
string by string,
you can play chords instead. So I'm going to present a version with the first verse in string-version
and the rest of all verse with chords.

-JeetJerome

Full step down - D G C F B d

Chords
  B  D   E  F# F#5 Bm C# A  Esus4
|-5--8---5--7------5--7--4--5----|
|-5--8---7--9------5--7--3--8----|
|-6--9---7--9---9--5--8--4--7----|
|-7--10--7--9---9--7--9--5--5----|
|-7--10--5--7---7--7--9--5--5----|
|-5--8---5--7------5--7--3--5----|


Intro
    v v p p  v v p p  v v p p v v v  B
d |----------------------------------------------------------|
B |----------------------------------------------------------|
F |-----------------------------------6-6-6-6-6-6-6-6-6-6-6-6|
C |-----------------------------------7-7-7-7-7-7-7-7-7-7-7-7|
G |-----------------------------4-2/0-7-7-7-7-7-7-7-7-7-7-7-7|
D |-5-5-0/3--5-5-0/3--5-5-0/3-5-------5-5-3/4/5-5-3/4/5-5-3/4|


d |------------------------------------------------------------------------------------------------------
B |------------------------------------------------------------------------------------------------------
F |------------------------------------------------------------------------------------------------------
C |------------------------------------------------------------------------------------------------------
G |-------------------5-------5----7---------------------5---5--------7-------7------------7-------------
D |-5-----8----8---------------------------5----8----8------------------------------5------------5-------
   Don't sing  if you want to live long    they have no use for your song    you're dead, you're dead,

d |---------------------------------------5-5-5-5-5-5-5-5-5-5-5-5|
B |---------------------------------------5-5-5-5-5-5-5-5-5-5-5-5|
F |---------------------------------------6-6-6-6-6-6-6-6-6-6-6-6| Repeat
C |---------------------------------------7-7-7-7-7-7-7-7-7-7-7-7| with
G |-7----------7--------------------------7-7-7-7-7-7-7-7-7-7-7-7| next
D |-------5-----------5----8---7-----3----5-5-3/4/5-5-3/4/5-5-3/4| verse
   you're dead you're dead and outta this world



B     D       E                F#
Don't sing if you want to live long
B    D       E             F#
they have no use f or your song
F#5    B    F#5    B    F#5    B     F#5    B
you're dead you're dead you're dead, you're dead
D   C#    A    B
and outta this world.


B      D        E         F#
You'll never get a second chance
B    D        E        F#
plan all your moves in advance
F#5  B    F#5  B    F#5  B     F#5  B
stay dead stay dead stay dead, stay dead
D   C#    A    B
and outta this world.


B   D          E            F#
Run fast don't stand in the sun
B       D        E          F#
there's too much work to be done
F#5    B    F#5    B    F#5    B     F#5   B
you're down you're down you're down, youre down
D   C#    A    B
and outta this world.

Solo
E, Esus4

B     D    E              F#
Don't ever talk with your eyes
B  D    E        F#
be sure that you compromise
F#5    B    F#5    B    F#5    B     F#5    B
you're dead you're dead you're dead, you're dead
D   C#    A    B
and outta this world.


B    D           E            F#
Hear the unloved weeping like rain
B     D          E                 F#
guard your sleep from the sound of their pain
F#5  B    F#5  B    F#5  B     F#5  B
long gone long gone long gone, long gone
D   C#    A    B
and outta this world.

Solo
E, Esus4


B    D         E                 F#
When you smile and it tears your face
B    D        E           F#
it's time for the inhuman race
F#5    B    F#5    B    F#5    B     F#5    B
you're down you're down you're down, you're down
D   C#    A    B
and outta this world.

B   D         E                 F#
Now your hope and compassion is gone
B      D        E                 F#
you've sold out your dream to the world
F#5  B    F#5  B    F#5  B     F#5    B
stay dead stay dead stay dead, you're dead
D   C#    A    B
and outta this world.
Добавлено: 02.06.2016
Другие материалы по этой песне:
  • Аккорды и текст

Страница создана 02.06.2016
http://primanota.ru/norma-tanega/youre-dead-chords.htm
Привет, Гость.
Предлагаем пройти революционный курс по гитаре.
Подарок от PrimaNota.Ru, забирай!