PrimaNota.ru - самый крупный в мире бесплатный архив песенных текстов, аккордов, табулатур и нот


Norma Jean - Lairsenic - таба

Регистрация Запомнить меня
Войти через:  Facebook Google Twitter Vk Yandex Mail.ru

Norma Jean - Lairsenic - таба

Печатать
Просмотров: 51
Transcribed by guitarwannabe16


	



Gtr I (C# G# C# F# A# B) - 'Untitled'
Gtr II (C# G# C# F# A# D#) - 'Untitled'
Gtr III (C# G# C# F# A# B) - 'Add guitar'

 Intro
  Q=165
 4/4
  Gtr I
           PM----|    PM                     PM----|    PM|    PM|
   Q       S S S S  E Q   E         +E       S S S S  E S S  E E E
|--------------------------------|---------------------------------|
|--------------------------------|---------------------------------|
|-19b19.5----------18----19b19.5-|-(19)b19.5---------18-----19-----|
|--------------------------------|---------------------------------|
|-17b17.5--0-0-0-0-16-0--17b17.5-|-(17)b17.5-0-0-0-0-16-0-0-17-0-0-|
|----------0-0-0-0----0----------|-----------0-0-0-0----0-0----0-0-|
|
| Gtr II
|          PM----|    PM                     PM----|    PM|    PM|
|  Q       S S S S  E Q   E         +E       S S S S  E S S  E E E
|--------------------------------|---------------------------------|
|--------------------------------|---------------------------------|
|-13b13.5----------12----13b13.5-|-(13)b13.5---------12-----13-----|
|--------------------------------|---------------------------------|
|-11b11.5--0-0-0-0-10-0--11b11.5-|-(11)b11.5-0-0-0-0-10-0-0-11-0-0-|
|----------0-0-0-0----0----------|-----------0-0-0-0----0-0----0-0-|


      PM          PM----|      PM          PM----|
   Q  Q   Q       S S S S    E Q   Q       S S S S  E
|-------------------------|-----------------------------|
|-------------------------|-----------------------------|
|-18-----19b19.5----------|-18----19b19.5----------18---|
|-------------------------|-----------------------------|
|-16--0--17b17.5--0-0-0-0-|-16-0--17b17.5--0-0-0-0-16---|
|-----0-----------0-0-0-0-|----0-----------0-0-0-0------|
|
|     PM          PM----|      PM          PM----|
|  Q  Q   Q       S S S S    E Q   Q       S S S S  E
|-------------------------|-----------------------------|
|-------------------------|-----------------------------|
|-12-----13b13.5----------|-12----13b13.5----------12---|
|-------------------------|-----------------------------|
|-10--0--11b11.5--0-0-0-0-|-10-0--11b11.5--0-0-0-0-10---|
|-----0-----------0-0-0-0-|----0-----------0-0-0-0------|


  PM|    PM----|     PM     PM-|          PM----|
  S S  E S S S S  Q  E  E   Q  E  Q       S S S S  E
|-------------------------|--------------------------|
|-------------------------|--------------------------|
|-----19---------18----18-|------19b19.5----------18-|
|-------------------------|--------------------------|
|-0-0-17-0-0-0-0-16--0-16-|-0--0-17b17.5--0-0-0-0-16-|
|-0-0----0-0-0-0-----0----|-0--0----------0-0-0-0----|
|
| PM|    PM----|     PM     PM-|          PM----|
| S S  E S S S S  Q  E  E   Q  E  Q       S S S S  E
|-------------------------|--------------------------|
|-------------------------|--------------------------|
|-----13---------12----12-|------13b13.5----------12-|
|-------------------------|--------------------------|
|-0-0-11-0-0-0-0-10--0-10-|-0--0-11b11.5--0-0-0-0-10-|
|-0-0----0-0-0-0-----0----|-0--0----------0-0-0-0----|


  PM                   PM----|    PM|      PM|     PM
  Q   E       +E       S S S S  E S S    E E E  Q  Q   E
|-------------------------------------|------------------------|
|-------------------------------------|------------------------|
|----19b19.5-(19)b19.5---------18-----|-19-----18-----19b19.5--|
|-------------------------------------|------------------------|
|-0--17b17.5-(17)b17.5-0-0-0-0-16-0-0-|-17-0-0-16--0--17b17.5--|
|-0--------------------0-0-0-0----0-0-|----0-0-----0-----------|
|
| PM                   PM----|    PM|      PM|     PM
| Q   E       +E       S S S S  E S S    E E E  Q  Q   E
|-------------------------------------|------------------------|
|-------------------------------------|------------------------|
|----13b13.5-(13)b13.5---------12-----|-13-----12-----13b13.5--|
|-------------------------------------|------------------------|
|-0--11b11.5-(11)b11.5-0-0-0-0-10-0-0-|-11-0-0-10--0--11b11.5--|
|-0--------------------0-0-0-0----0-0-|----0-0-----0-----------|


            PM----|    PM            PM----|    PM|    PM----|
   +E       S S S S  E Q   Q         S S S S  E S S  E S S S S  E
|----------------------------------|------------------------------|
|----------------------------------|------------------------------|
|-(19)b19.5---------18----19b19.5--|---------18-----19---------18-|
|----------------------------------|------------------------------|
|-(17)b17.5-0-0-0-0-16-0--17b17.5--|-0-0-0-0-16-0-0-17-0-0-0-0-16-|
|-----------0-0-0-0----0-----------|-0-0-0-0----0-0----0-0-0-0----|
|
|           PM----|    PM            PM----|    PM|    PM----|
|  +E       S S S S  E Q   Q         S S S S  E S S  E S S S S  E
|----------------------------------|------------------------------|
|----------------------------------|------------------------------|
|-(13)b13.5---------12----13b13.5--|---------12-----13---------12-|
|----------------------------------|------------------------------|
|-(11)b11.5-0-0-0-0-10-0--11b11.5--|-0-0-0-0-10-0-0-11-0-0-0-0-10-|
|-----------0-0-0-0----0-----------|-0-0-0-0----0-0----0-0-0-0----|


                     Intro Break
       PM   PM-|              PM--------|    PM|
   +E  E  E Q  E Q    +E   Q  S S S S S S  E S S
|-------------------|-----10--------------10------|
|-------------------|-----10--------------10------|
|-(18)---18---------|-----------------------------|
|----------------0--|-(0)-------------------------|
|-(16)-0-16-0--0-0--|-(0)-----0-0-0-0-0-0----0-0--|
|------0----0--0-0--|-(0)-----0-0-0-0-0-0----0-0--|
|
|      PM   PM-|
|  +E  E  E Q  E Q    +W
|-------------------|-----------------------------|
|-------------------|-----------------------------|
|-(12)---12---------|-----------------------------|
|----------------0--|-(0)-------------------------|
|-(10)-0-10-0--0-0--|-(0)-------------------------|
|------0----0--0-0--|-(0)-------------------------|


       PM----------|
   Q   S S S S  S  S  E  Q     E Q   Q   E Q
|-10-----------------10-10\--|------10\-------|
|-10-----------------10-10\--|------10\-------|
|----------------------------|----------------|
|----------------------------|----------------|
|------0-0-0-0--0--0---------|-0s8-------0s8--|
|------0-0-0-0--0--0---------|-0s8-------0s8--|
|
| +H           +E     E  Q     W
|--------------------10-10\--|----------------|
|--------------------10-10\--|----------------|
|----------------------------|----------------|
|-(0)----------(0)-----------|----------------|
|-(0)----------(0)-----------|----------------|
|-(0)----------(0)-----------|----------------|


                          Verse I
   PM---------|                  PM
   E  E  E  E  E  E  E E   E  Q  E E E  Q
|-10-10-10-10-10-10-10---|---10--------10---|
|-10-10-10-10-10-10-10---|---10--------10---|
|------------------------|------------------|
|------------------------|------------------|
|----------------------0s|=8-----0-0s8------|
|----------------------0s|=8-----0-0s8------|
|
|  PM---------|                  PM
|  E  E  E  E  E  E  E E   E  Q  E E E  Q
|-10-10-10-10-10-10-10---|---10--------10---|
|-10-10-10-10-10-10-10---|---10--------10---|
|------------------------|------------------|
|------------------------|------------------|
|----------------------0s|=8-----0-0s8------|
|----------------------0s|=8-----0-0s8------|


            PM|                       PM
    S S  Q  S S E E  E  E    +E   E E E  Q   E E
||------10----------10-10-|-(10)\-------10\------|
||o-----10----------10-10-|-(10)\-------10\------|
||------------------------|----------------------|
||------------------------|----------------------|
||o-0s8-----0-0-0s8-------|-------0s8-0------0s8-|
||--0s8-----0-0-0s8-------|-------0s8-0------0s8-|
|
|           PM|                       PM
|   S S  Q  S S E E  E  E    +E   E E E  Q   E E
||------10----------10-10-|-(10)\-------10\------|
||o-----10----------10-10-|-(10)\-------10\------|
||------------------------|----------------------|
||------------------------|----------------------|
||o-0s8-----0-0-0s8-------|-------0s8-0------0s8-|
||--0s8-----0-0-0s8-------|-------0s8-0------0s8-|


                          PM
   E E E E Q  E E   E  Q  E E E  Q    3x
|-----------------|---10--------10----||
|-----------------|---10--------10---o||
|-----------------|-------------------||
|-----------------|-------------------||
|-10------------0s|=8-----0-0s8------o||
|----8-0-7-8--0-0s|=8-----0-0s8-------||
|
|                         PM
|  E E E E Q  E E   E  Q  E E E  Q    3x
|-----------------|---10--------10----||
|-----------------|---10--------10---o||
|-----------------|-------------------||
|-----------------|-------------------||
|-10------------0s|=8-----0-0s8------o||
|----8-0-7-8--0-0s|=8-----0-0s8-------||


          PM|                       PM
  S S  Q  S S E E  E  E    +E   E E E  Q   E E
|-----10----------10-10-|-(10)\-------10\------|
|-----10----------10-10-|-(10)\-------10\------|
|-----------------------|----------------------|
|-----------------------|----------------------|
|-0s8-----0-0-0s8-------|-------0s8-0------0s8-|
|-0s8-----0-0-0s8-------|-------0s8-0------0s8-|
|
|         PM|                       PM
| S S  Q  S S E E  E  E    +E   E E E  Q   E E
|-----10----------10-10-|-(10)\-------10\------|
|-----10----------10-10-|-(10)\-------10\------|
|-----------------------|----------------------|
|-----------------------|----------------------|
|-0s8-----0-0-0s8-------|-------0s8-0------0s8-|
|-0s8-----0-0-0s8-------|-------0s8-0------0s8-|


                   Pre-Chorus I
   E E E E Q  E E   +E  Q  E Q  Q
|-----------------|----------------|
|-----------------|----------------|
|-----------------|----------------|
|---------------1-|-(1)-0----3--0--|
|-10------------1-|-(1)-0----3--0--|
|----8-0-7-8--0-1-|-(1)-0----3--0--|
|
|  E E E E Q  E E   +E  Q  E Q  Q
|-----------------|----------------|
|-----------------|----------------|
|-----------------|----------------|
|---------------1-|-(1)-0----3--0--|
|-10------------1-|-(1)-0----3--0--|
|----8-0-7-8--0-1-|-(1)-0----3--0--|


                                                       Chorus I
    E Q  E Q  E E   +E  Q  E Q  Q   3x E Q  E Q  E  E    E  E Q  E E E E
||----------------|-----------------||----------------|-------------------|
||o---------------|----------------o||----------------|-------------------|
||----------------|-----------------||----------------|-------------------|
||--------------1-|-(1)-0----3--0---||--------------8-|--8--8-0--0--------|
||o-------------1-|-(1)-0----3--0--o||--------------8-|--8--8-0--0-9-8-0--|
||--1-0--3-1--0-1-|-(1)-0----3--0---||-1-0--3-1--0--8-|--8--8-0--0--------|
|
|   E Q  E Q  E E   +E  Q  E Q  Q   3x E Q  E Q  E  E    E  E Q  E E E E
||----------------|-----------------||----------------|-------------------|
||o---------------|----------------o||----------------|-------------------|
||----------------|-----------------||-------------10-|-10-10------7------|
||--------------1-|-(1)-0----3--0---||--------------8-|--8--8-0--0---8-7--|
||o-------------1-|-(1)-0----3--0--o||----------------|-------0--0--------|
||--1-0--3-1--0-1-|-(1)-0----3--0---||-1-0--3-1--0----|-------0--0--------|


  E E E E E E E  E    E  E Q  E Q.
|------------------|------------0------|
|------------------|------------0------|
|------------------|------------0------|
|----------------8-|--8--8-0--0-0------|
|-8-0-8-9-8-0-8--8-|--8--8-0--0-0------|
|----------------8-|--8--8-0--0-0------|
|
| E E E E E E E  E    E  E Q  E E  E E
|------------------|-------------------|
|------------------|-------------------|
|-------7-------10-|-10-10------7------|
|-8-7-8---8-7-8--8-|--8--8-0--0----8-7-|
|------------------|-------0--0--------|
|------------------|-------0--0--------|


  +H.           +E   E    E  E Q  E E E E
|-(0)-----------(0)----|------------------|
|-(0)-----------(0)----|------------------|
|-(0)-----------(0)----|------------------|
|-(0)-----------(0)--8-|--8--8-0--0-------|
|-(0)-----------(0)--8-|--8--8-0--0-9-8-0-|
|-(0)-----------(0)--8-|--8--8-0--0-------|
|
|  E  E E E E E  E   E    E  E Q  E E E E
|----------------------|------------------|
|----------------------|------------------|
|---------7---------10-|-10-10------7-----|
|--8--7-8---8-7--8---8-|--8--8-0--0---8-7-|
|----------------------|-------0--0-------|
|----------------------|-------0--0-------|


  E E E E E E E  E    E  E Q  E E E E   E E E E E E E  E    E  E Q  E E E E
|------------------|------------------|------------------|------------------|
|------------------|------------------|------------------|------------------|
|------------------|------------------|------------------|------------------|
|----------------8-|--8--8-0--0-5-5-5-|-5-5-5-5-3-3-3--8-|--8--8-0--0-------|
|-8-0-8-9-8-0-8--8-|--8--8-0--0-5-5-5-|-5-5-5-5-3-3-3--8-|--8--8-0--0-9-8-0-|
|----------------8-|--8--8-0--0-5-5-5-|-5-5-5-5-3-3-3--8-|--8--8-0--0-------|
|
| E E E E E E E  E    E  E Q  E E E E   E E E E E E E  E    E  E Q  E E E E
|------------------|------------------|------------------|------------------|
|------------------|------------------|------------------|------------------|
|-------7-------10-|-10-10------------|---------------10-|-10-10------7-----|
|-8-7-8---8-7-8--8-|--8--8-0--0-5-5-5-|-5-5-5-5-3-3-3--8-|--8--8-0--0---8-7-|
|------------------|-------0--0-5-5-5-|-5-5-5-5-3-3-3----|-------0--0-------|
|------------------|-------0--0-5-5-5-|-5-5-5-5-3-3-3----|-------0--0-------|


  E E E E E E E  E    E  E Q  E E E E   E E E E E E E  E    E  E Q  E E E E
|------------------|------------------|------------------|------------------|
|------------------|------------------|------------------|------------------|
|------------------|------------7-7-7-|-7-7-7-7-7-7-7----|------------------|
|----------------8-|--8--8-0--0-------|----------------8-|--8--8-0--0-------|
|-8-0-8-9-8-0-8--8-|--8--8-0--0-5-5-5-|-5-5-5-5-5-5-5--8-|--8--8-0--0-9-8-0-|
|----------------8-|--8--8-0--0-------|----------------8-|--8--8-0--0-------|
|
| E E E E E E E  E    E  E Q  E E E E   E E E E E E E  E    E  E Q  E E E E
|------------------|------------------|------------------|------------------|
|------------------|------------------|------------------|------------------|
|-------7-------10-|-10-10------7-----|-------7-------10-|-10-10------7-----|
|-8-7-8---8-7-8--8-|--8--8-0--0---8-7-|-8-7-8---8-7-8--8-|--8--8-0--0---8-7-|
|------------------|-------0--0-------|------------------|-------0--0-------|
|------------------|-------0--0-------|------------------|-------0--0-------|


                                                         Interlude
  E E E E E E E  E    E  E Q  E E E E   E E E E E E E E   E E H.
|------------------|------------------|-----------------|-----------|
|------------------|------------------|-----------------|-----------|
|------------------|------------------|-----------------|-----------|
|----------------8-|--8--8-0--0-5-5-5-|-5-5-5-5-3-3-3-8-|-8-8-0-----|
|-8-0-8-9-8-0-8--8-|--8--8-0--0-5-5-5-|-5-5-5-5-3-3-3-8-|-8-8-0-----|
|----------------8-|--8--8-0--0-5-5-5-|-5-5-5-5-3-3-3-8-|-8-8-0-----|
|
| E E E E E E E  E    E  E Q  E E E E   E E E E E E E E   E E H.
|------------------|------------------|-----------------|-----------|
|------------------|------------------|-----------------|-----------|
|-------7-------10-|-10-10------------|-----------------|-----------|
|-8-7-8---8-7-8--8-|--8--8-0--0-5-5-5-|-5-5-5-5-3-3-3-8-|-8-8-0-----|
|------------------|-------0--0-5-5-5-|-5-5-5-5-3-3-3-8-|-8-8-0-----|
|------------------|-------0--0-5-5-5-|-5-5-5-5-3-3-3-8-|-8-8-0-----|


  +W           +E  H.      +E    +Q   H     Q    +E  H..
|------------|-----------------|---------------|------------|
|------------|-----------------|---------------|------------|
|------------|-----------------|---------------|------------|
|-(0)--------|-(0)-------------|---------------|------------|
|-(0)--------|-(0)-------------|---------------|------------|
|-(0)--------|-(0)-5-------(5)-|-(5)--3----/8--|-(8)-0------|
|
| +W           +E  H.      +E    +Q   H     Q    +E  H..
|------------|-----------------|---------------|------------|
|------------|-----------------|---------------|------------|
|------------|-----------------|---------------|------------|
|-(0)--------|-(0)-------------|---------------|------------|
|-(0)--------|-(0)-------------|---------------|------------|
|-(0)--------|-(0)-5-------(5)-|-(5)--3----/8--|-(8)-0------|


  +W           +E  H.      +E    +Q    H      Q     +E   H..
|------------|-----------------|-----------------|--------------|
|------------|-----------------|-----------------|--------------|
|------------|-----------------|-----------------|--------------|
|------------|-----------------|-----------------|--------------|
|------------|-----------------|-----------------|--------------|
|-(0)--------|-(0)-5-------(5)-|-(5)---3-----/8--|--(8)--0------|
|
| +W           +E  H.      +E    +Q    H      Q     +E   H..
|------------|-----------------|-----------------|--------------|
|------------|-----------------|-----------------|--------------|
|------------|-----9-------(9)-|-(9)--10----/12--|-(12)-11------|
|------------|-----------------|-----------------|--------------|
|------------|-----7-------(7)-|-(7)---8----/10--|-(10)--9------|
|-(0)--------|-(0)-------------|-----------------|--------------|


   +W            +E   H.       +E     +Q   H            Q     +E  H..
|-------------|--------------------|-----------------------|-----------------|
|-------------|--------------------|-----------------------|-----------------|
|-------------|--------------------|-----------------------|-----------------|
|-------------|--------------------|-----------------------|-----------------|
|-------------|--------------------|-----------------------|-----------------|
|--(0)--------|--(0)--5--------(5)-|--(5)--3-----------/8--|--(8)-0----------|
|
|  +W            +E   H..             +H       +H             +H.         Q
|-------------|--------------------|-----------------------|-----------------|
|-------------|--------------------|-----------------------|-----------------|
|-(11)--------|-(11)-14------------|-(14)-----(14)b15r=====|=(14)---------8--|
|-------------|--------------------|-----------------------|-----------------|
|--(9)--------|--(9)-12------------|-(12)-----(12)b13r=====|=(12)---------6--|
|-------------|--------------------|-----------------------|-----------------|


  W                +E  H.       +E    +Q   H     Q    +E  H..
|----------------|------------------|---------------|------------------|
|----------------|------------------|---------------|------------------|
|----------------|------------------|---------------|------------------|
|----------------|------------------|---------------|------------------|
|----------------|------------------|---------------|------------------|
|-0--------------|-(0)-5--------(5)-|-(5)--3----/8--|-(8)-0------------|
|
| Q     +H.        +E  H..            +Q   H     Q    +E  Q.    Q  E E
|----------------|------------------|---------------|------------------|
|----------------|------------------|---------------|------------------|
|-7pb8r=(7)------|-(7)-5------------|-(5)--5-----5--|-(5)S7-----7----7-|
|----------------|------------------|---------------|------------------|
|-5pb6r=(5)------|-(5)-3------------|-(3)--3-----3--|-(3)S5-----5----5-|
|----------------|------------------|---------------|------------------|


                                                       Build back into Verse
  +W                +W                +W                 Q    Q  Q  E E
|-----------------|-----------------|-----------------|-----------------|
|-----------------|-----------------|-----------------|-----------------|
|-----------------|-----------------|-----------------|-----------------|
|-----------------|-----------------|-----------------|-----------------|
|-----------------|-----------------|-----------------|-----------------|
|-(0)-------------|-(0)-------------|-(0)-------------|-12\---1--0----3-|
|
| +E  Q  E Q  E E   +E  E Q  Q  E E   +E  Q  E Q  E E   +E  E Q  Q  E E
|-----------------|-----------------|-----------------|-----------------|
|-----------------|-----------------|-----------------|-----------------|
|-(7)-7--7-7----7-|-(7)-7-7--7----7-|-(7)-7--7-7----7-|-(7)-7-7--7----7-|
|-----------------|-----------------|-----------------|-----------------|
|-(5)-5--5-5----5-|-(5)-5-5--5----5-|-(5)-5--5-5----5-|-(5)-5-5--5----5-|
|-----------------|-----------------|-----------------|-----------------|


  +E  Q  E Q  E E     +E  E Q  Q  E E   +E  Q  E Q  E E     +E  E Q  Q  E E
|-----------------||------------------|------------------||-----------------|
|-----------------||o-----------------|-----------------o||-----------------|
|-----------------||------------------|------------------||-----------------|
|-----------------||------------------|------------------||-----------------|
|-----------------||o-----------------|-----------------o||-----------------|
|-(3)-0--1-0--3-1-||--(1)-0-1--0----3-|-(3)-0--1-0--3-1--||-(1)-0-1--0----3-|
|
| +E  Q  E Q  E E     +E  E Q  Q  E E   +E  Q  E Q  E E     +E  E Q  Q  E E
|-----------------||------------------|------------------||-----------------|
|-----------------||o-----------------|-----------------o||-----------------|
|-(7)-7--7-7----7-||--(7)-7-7--7----7-|-(7)-7--7-7----7--||-(7)-7-7--7----7-|
|-----------------||------------------|------------------||-----------------|
|-(5)-5--5-5----5-||o-(5)-5-5--5----5-|-(5)-5--5-5----5-o||-(5)-5-5--5----5-|
|-----------------||------------------|------------------||-----------------|


          PM---------|
  +E  Q   E  E  E  E  E    E  E  E  E  E  E E  E
|--------10-10-10-10-10-|-10-10-10-10-10-10------|
|--------10-10-10-10-10-|-10-10-10-10-10-10------|
|-----------------------|------------------------|
|-----------------------|------------------------|
|-----------------------|-------------------0s12-|
|-(3)-0-----------------|-------------------0s12-|
|
|         PM---------|
| +E  Q   E  E  E  E  E    E  E  E  E  E  E E  E
|--------10-10-10-10-10-|-10-10-10-10-10-10------|
|--------10-10-10-10-10-|-10-10-10-10-10-10------|
|-(7)-7-----------------|------------------------|
|-----------------------|------------------------|
|-(5)-5-----------------|-------------------0s12-|
|-----------------------|-------------------0s12-|


 Pre-Verse
  PM--------|      PM----------|      PM
  E S S E E E E  E E   E S S S S E  E E E  E
|--------------------|------------------------|
|--------------------|------------------------|
|--------------------|------------------------|
|--------------------|------------------------|
|-0-0-0-0-0-0-0s12-0-|-0-0-0-0-0-0s12-0-0s12--|
|-0-0-0-0-0-0-0s12-0-|-0-0-0-0-0-0s12-0-0s12--|
|
| PM--------|      PM----------|      PM
| E S S E E E E  E E   E S S S S E  E E E  E
|--------------------|------------------------|
|--------------------|------------------------|
|--------------------|------------------------|
|--------------------|------------------------|
|-0-0-0-0-0-0-0s12-0-|-0-0-0-0-0-0s12-0-0s12--|
|-0-0-0-0-0-0-0s12-0-|-0-0-0-0-0-0s12-0-0s12--|


  PM--------|      PM---------------------|
  E S S E E E E  E E   E  E S S S S S S S S E  E
|--------------------|---------------------------|
|--------------------|---------------------------|
|--------------------|---------------------------|
|--------------------|---------------------------|
|-0-0-0-0-0-0-0s12-0-|-0--0-0-0-0-0-0-0-0-0-0s12-|
|-0-0-0-0-0-0-0s12-0-|-0--0-0-0-0-0-0-0-0-0-0s12-|
|
| PM--------|      PM---------------------|
| E S S E E E E  E E   E  E S S S S S S S S E  E
|--------------------|---------------------------|
|--------------------|---------------------------|
|--------------------|---------------------------|
|--------------------|---------------------------|
|-0-0-0-0-0-0-0s12-0-|-0--0-0-0-0-0-0-0-0-0-0s12-|
|-0-0-0-0-0-0-0s12-0-|-0--0-0-0-0-0-0-0-0-0-0s12-|
|
| Gtr III
| W                    H.                   E  E
|--------------------|---------------------------|
|--------------------|---------------------------|
|--------------------|---------------------------|
|--------------------|---------------------------|
|--------------------|---------------------------|
|--------------------|----------------------0s=8-|


   PM--------|       PM-------------|       PM
   E S S E E E  E  E E      E S S S S E  E  E  E   E
|------------------------|---------------------------|
|------------------------|---------------------------|
|------------------------|---------------------------|
|------------------------|---------------------------|
|--0-0-0-0-0-0--0s12-0---|--0-0-0-0-0-0s12--0--0s=12-|
|--0-0-0-0-0-0--0s12-0---|--0-0-0-0-0-0s12--0--0s=12-|
|
|  PM--------|       PM-------------|       PM
|  E S S E E E  E  E E      E S S S S E  E  E  E   E
|------------------------|---------------------------|
|------------------------|---------------------------|
|------------------------|---------------------------|
|------------------------|---------------------------|
|--0-0-0-0-0-0--0s12-0---|--0-0-0-0-0-0s12--0--0s=12-|
|--0-0-0-0-0-0--0s12-0---|--0-0-0-0-0-0s12--0--0s=12-|
|
|        PM                       PM|
|  Q     E E E  Q    S S    Q     S S E  E  E  Q
|-10-----------10--------|-10--------------10-10\----|
|-10-----------10--------|-10--------------10-10\----|
|------------------------|---------------------------|
|------------------------|---------------------------|
|--------0---------------|--------0-0----------------|
|--------0-0s8-------0s8-|--------0-0-0s=8-----------|


  PM----------|
  E S S E  E  E E  E  E   E E E Q  E E E
|-----------------------|----------------|
|-----------------------|----------------|
|-----------------------|----------------|
|-----------------------|----------------|
|-0-0-0-0--0--0-0s12-10-|------------0s8-|
|-0-0-0-0--0--0-0s12----|-8-0-7-8--0-0s8-|
|
| PM----------|
| E S S E  E  E E  E  E   E E E Q  E E E
|-----------------------|----------------|
|-----------------------|----------------|
|-----------------------|----------------|
|-----------------------|----------------|
|-0-0-0-0--0--0-0s12-10-|------------0s8-|
|-0-0-0-0--0--0-0s12----|-8-0-7-8--0-0s8-|
|
|       PM
| E E   E  Q    E  E  E   W
|---------10\-----------|----------------|
|---------10\-----------|----------------|
|-----------------------|----------------|
|-----------------------|----------------|
|-------0---------------|----------------|
|-0s8---0-------0s=8----|----------------|


 Verse II
      PM                  PM|
   Q  E E E  Q  S S    Q  S S E E  E  Q
|-10--------10------|-10----------10-10\---|
|-10--------10------|-10----------10-10\---|
|-------------------|----------------------|
|-------------------|----------------------|
|-----0-0s8-----0s8-|-----0-0-0s8----------|
|-----0-0s8-----0s8-|-----0-0-0s8----------|
|
|     PM                  PM|
|  Q  E E E  Q  S S    Q  S S E E  E  Q
|-10--------10------|-10----------10-10\---|
|-10--------10------|-10----------10-10\---|
|-------------------|----------------------|
|-------------------|----------------------|
|-----0-0s8-----0s8-|-----0-0-0s8----------|
|-----0-0s8-----0s8-|-----0-0-0s8----------|
|
|  W                   W
|-------------------|----------------------|
|-------------------|----------------------|
|-------------------|----------------------|
|-------------------|----------------------|
|-------------------|----------------------|
|-------------------|----------------------|


        PM
    E E E  Q   E E  E   E E E Q  E E E
||--------10\---------|----------------|
||o-------10\---------|----------------|
||--------------------|----------------|
||--------------------|----------------|
||o-0s8-0------0s8-10-|------------0s8-|
||--0s8-0------0s8----|-8-0-7-8--0-0s8-|
|
|       PM
|   E E E  Q   E E  E   E E E Q  E E E
||--------10\---------|----------------|
||o-------10\---------|----------------|
||--------------------|----------------|
||--------------------|----------------|
||o-0s8-0------0s8-10-|------------0s8-|
||--0s8-0------0s8----|-8-0-7-8--0-0s8-|


      PM                  PM|
   Q  E E E  Q  S S    Q  S S E E  E  Q
|-10--------10------|-10----------10-10\--||
|-10--------10------|-10----------10-10\-o||
|-------------------|---------------------||
|-------------------|---------------------||
|-----0-0s8-----0s8-|-----0-0-0s8--------o||
|-----0-0s8-----0s8-|-----0-0-0s8---------||
|
|     PM                  PM|
|  Q  E E E  Q  S S    Q  S S E E  E  Q
|-10--------10------|-10----------10-10\--||
|-10--------10------|-10----------10-10\-o||
|-------------------|---------------------||
|-------------------|---------------------||
|-----0-0s8-----0s8-|-----0-0-0s8--------o||
|-----0-0s8-----0s8-|-----0-0-0s8---------||


                                            Pre-Chorus II
      PM
  E E E  Q   E E  E    E  E  E  E  E  E Q    Q  E Q  E E E    Q  E Q  E Q
|-------10\---------|----------------------|---------------|--------------|
|-------10\---------|----------------------|---------------|--------------|
|----------------10-|-10-10-10-10-10-10----|---------------|--------------|
|-------------------|-------------------1--|-0----3--0-----|------------1-|
|-0s8-0------0s8--8-|--8--8--8--8--8--8-1--|-0----3--0-----|------------1-|
|-0s8-0------0s8----|-------------------1--|-0----3--0---1-|--0--3-1--0-1-|
|
|     PM
| E E E  Q   E E  E    E  E  E  E  E  E Q    Q  E Q  E E E    Q  E Q  E Q
|-------10\---------|----------------------|---------------|--------------|
|-------10\---------|----------------------|---------------|--------------|
|----------------10-|-10-10-10-10-10-10----|---------------|--------------|
|-------------------|-------------------1--|-0----3--0-----|------------1-|
|-0s8-0------0s8--8-|--8--8--8--8--8--8-1--|-0----3--0-----|------------1-|
|-0s8-0------0s8----|-------------------1--|-0----3--0---1-|--0--3-1--0-1-|


                                                                  TP
    Q  E Q  E E E   Q  E Q  E Q   3x Q  E Q  E E E   Q  E Q  E E  E
||----------------|---------------||---------------|------------------|
||o---------------|--------------o||---------------|------------------|
||----------------|---------------||---------------|-------------10---|
||--0----3--0-----|-----------1---||-0----3--0-----|-----------8--8---|
||o-0----3--0-----|-----------1--o||-0----3--0-----|-----------8------|
||--0----3--0---1-|-0--3-1--0-1---||-0----3--0---1-|-0--3-1--0-8------|
|
|   Q  E Q  E E E   Q  E Q  E Q   3x Q  E Q  E E E   Q  E Q  E    E E
||----------------|---------------||---------------|------------------|
||o---------------|--------------o||---------------|------------------|
||----------------|---------------||---------------|------------------|
||--0----3--0-----|-----------1---||-0----3--0-----|--------------8---|
||o-0----3--0-----|-----------1--o||-0----3--0-----|--------------8---|
||--0----3--0---1-|-0--3-1--0-1---||-0----3--0---1-|-0--3-1--0----8---|


 Chorus II
   TP
   E Q  E E E E E   E E E E E E  E  E    E Q  E E E E E   E E E E E E  E  E
|-----------------|-------------------|-----------------|---------------------|
|-----------------|-------------------|-----------------|---------------------|
|-10--------------|-------------------|---------7-7-7-7-|-7-7-7-7-7-7---------|
|--8-0--0---------|--------------8--8-|--8-0--0---------|--------------8--8---|
|----0--0-9-8-0-8-|-0-8-9-8-0-8--8--8-|--8-0--0-5-5-5-5-|-5-5-5-5-5-5--8--8---|
|----0--0---------|--------------8--8-|--8-0--0---------|--------------8--8---|
|
|  E Q  E E E E E   E E E E E E  E  E    E Q  E E E E E   E E E E E E  E  E
|-----------------|-------------------|-----------------|---------------------|
|-----------------|-------------------|-----------------|---------------------|
|---------7-------|-----7-------10-10-|-10------7-------|-----7-------10-10---|
|----0--0---8-7-8-|-7-8---8-7-8--8--8-|--8-0--0---8-7-8-|-7-8---8-7-8--8--8---|
|----0--0---------|-------------------|----0--0---------|---------------------|
|----0--0---------|-------------------|----0--0---------|---------------------|


   E Q  E E E E E   E E E E E E  E  E    E Q  E E E E E   E E E E E E  E  E
|-----------------|-------------------|-----------------|-------------------|
|-----------------|-------------------|-----------------|-------------------|
|-----------------|-------------------|-----------------|-------------------|
|--8-0--0---------|--------------8--8-|--8-0--0-5-5-5-5-|-5-5-5-3-3-3--8--8-|
|--8-0--0-9-8-0-8-|-0-8-9-8-0-8--8--8-|--8-0--0-5-5-5-5-|-5-5-5-3-3-3--8--8-|
|--8-0--0---------|--------------8--8-|--8-0--0-5-5-5-5-|-5-5-5-3-3-3--8--8-|
|
|  E Q  E E E E E   E E E E E E  E  E    E Q  E E E E E   E E E E E E  E  E
|-----------------|-------------------|-----------------|-------------------|
|-----------------|-------------------|-----------------|-------------------|
|-10------7-------|-----7-------10-10-|-10--------------|-------------10-10-|
|--8-0--0---8-7-8-|-7-8---8-7-8--8--8-|--8-0--0-5-5-5-5-|-5-5-5-3-3-3--8--8-|
|----0--0---------|-------------------|----0--0-5-5-5-5-|-5-5-5-3-3-3-------|
|----0--0---------|-------------------|----0--0-5-5-5-5-|-5-5-5-3-3-3-------|


   E Q  E E E E E   E E E E E E  E  E    E Q  E E E E E   E E E E E E  E  E
|-----------------|-------------------|-----------------|-------------------|
|-----------------|-------------------|-----------------|-------------------|
|-----------------|-------------------|---------7-7-7-7-|-7-7-7-7-7-7-------|
|--8-0--0---------|--------------8--8-|--8-0--0---------|--------------8--8-|
|--8-0--0-9-8-0-8-|-0-8-9-8-0-8--8--8-|--8-0--0-5-5-5-5-|-5-5-5-5-5-5--8--8-|
|--8-0--0---------|--------------8--8-|--8-0--0---------|--------------8--8-|
|
|  E Q  E E E E E   E E E E E E  E  E    E Q  E E E E E   E E E E E E  E  E
|-----------------|-------------------|-----------------|-------------------|
|-----------------|-------------------|-----------------|-------------------|
|-10------7-------|-----7-------10-10-|-10------7-------|-----7-------10-10-|
|--8-0--0---8-7-8-|-7-8---8-7-8--8--8-|--8-0--0---8-7-8-|-7-8---8-7-8--8--8-|
|----0--0---------|-------------------|----0--0---------|-------------------|
|----0--0---------|-------------------|----0--0---------|-------------------|


                                                                       TP
   E Q  E E E E E   E E E E E E  E  E    E Q  E E E E E   E E E E E E  Q
|-----------------|-------------------|-----------------|---------------------|
|-----------------|-------------------|-----------------|---------------------|
|-----------------|-------------------|-----------------|-------------10------|
|--8-0--0---------|--------------8--8-|--8-0--0-5-5-5-5-|-5-5-5-3-3-3---------|
|--8-0--0-9-8-0-8-|-0-8-9-8-0-8--8--8-|--8-0--0-5-5-5-5-|-5-5-5-3-3-3--8------|
|--8-0--0---------|--------------8--8-|--8-0--0-5-5-5-5-|-5-5-5-3-3-3---------|
|
|  E Q  E E E E E   E E E E E E  E  E    E Q  E E E E E   E E E E E E  E E
|-----------------|-------------------|-----------------|---------------------|
|-----------------|-------------------|-----------------|---------------------|
|-10------7-------|-----7-------10-10-|-10--------------|---------------------|
|--8-0--0---8-7-8-|-7-8---8-7-8--8--8-|--8-0--0-5-5-5-5-|-5-5-5-3-3-3--8------|
|----0--0---------|-------------------|----0--0-5-5-5-5-|-5-5-5-3-3-3--8------|
|----0--0---------|-------------------|----0--0-5-5-5-5-|-5-5-5-3-3-3--8------|


 Break                          Chorus Finale
   TP       TP       TP
   H.       Q        H. E E      E E E E E E E E   E E E E E E E E
|--------------|---------------|-----------------|------------------|
|----------10--|----10---------|-----------------|------------------|
|-10-------10--|----10---------|-----------------|------------------|
|--------------|--------0-0----|-0-0-0-0-0-0-5-5-|-5-5-5-5-5-5-3-3--|
|--8--------8--|-----8--0-0----|-0-0-0-0-0-0-5-5-|-5-5-5-5-5-5-3-3--|
|--------------|--------0-0----|-0-0-0-0-0-0-5-5-|-5-5-5-5-5-5-3-3--|
|
|  W             H.  E  E        E E E E E E E E   E E E E E E E E
|--------------|---------------|-----------------|------------------|
|--------------|---------------|-----------------|------------------|
|--------------|---------------|-----------------|------------------|
|--------------|-----0--0------|-0-0-0-0-0-0-5-5-|-5-5-5-5-5-5-3-3--|
|--------------|-----0--0------|-0-0-0-0-0-0-5-5-|-5-5-5-5-5-5-3-3--|
|--------------|-----0--0------|-0-0-0-0-0-0-5-5-|-5-5-5-5-5-5-3-3--|


  E E E E E E E E   E E E E E E E E   E E E E E E E E   E E E E E E E E
|-----------------|-----------------|-----------------|-----------------|
|-----------------|-----------------|-----------------|-----------------|
|-----------------|-----------------|-----------------|-----------------|
|-3-3-3-3-3-3-8-8-|-8-8-8-8-8-8-0-0-|-0-0-0-0-0-0-5-5-|-5-5-5-5-5-5-3-3-|
|-3-3-3-3-3-3-8-8-|-8-8-8-8-8-8-0-0-|-0-0-0-0-0-0-5-5-|-5-5-5-5-5-5-3-3-|
|-3-3-3-3-3-3-8-8-|-8-8-8-8-8-8-0-0-|-0-0-0-0-0-0-5-5-|-5-5-5-5-5-5-3-3-|
|
| E E E E E E E E   E E E E E E E E   E E E E E E E E   E E E E E E E E
|-----------------|-----------------|-----------------|-----------------|
|-----------------|-----------------|-----------------|-----------------|
|-----------------|-----------------|-----------------|-----------------|
|-3-3-3-3-3-3-8-8-|-8-8-8-8-8-8-0-0-|-0-0-0-0-0-0-5-5-|-5-5-5-5-5-5-3-3-|
|-3-3-3-3-3-3-8-8-|-8-8-8-8-8-8-0-0-|-0-0-0-0-0-0-5-5-|-5-5-5-5-5-5-3-3-|
|-3-3-3-3-3-3-8-8-|-8-8-8-8-8-8-0-0-|-0-0-0-0-0-0-5-5-|-5-5-5-5-5-5-3-3-|


                PM------------|
  E E E E E E E E   E E E E E E  E  E
|-----------------|-------------------|
|-----------------|-------------------|
|-----------------|-------------10-10-|
|-3-3-3-3-3-3-8-8-|-8-8-8-8-8-8-------|
|-3-3-3-3-3-3-8-8-|-8-8-8-8-8-8--8--8-|
|-3-3-3-3-3-3-8-8-|-8-8-8-8-8-8-------|
|
|               PM------------|
| E E E E E E E E   E E E E E E  E  E
|-----------------|-------------------|
|-----------------|-------------------|
|-----------------|-------------------|
|-3-3-3-3-3-3-8-8-|-8-8-8-8-8-8--0--0-|
|-3-3-3-3-3-3-8-8-|-8-8-8-8-8-8--0--0-|
|-3-3-3-3-3-3-8-8-|-8-8-8-8-8-8--0--0-|


   E  E  E  E  E  E E E   E E E E E E  E  E
|-----------------------|-------------------|
|-----------------------|-------------------|
|-10-10-10-10-10-10-9-9-|-9-9-9-9-9-9-12-12-|
|-----------------------|-------------------|
|--8--8--8--8--8--8-7-7-|-7-7-7-7-7-7-10-10-|
|-----------------------|-------------------|
|
|  E  E  E  E  E  E E E   E E E E E E  E  E
|-----------------------|-------------------|
|-----------------------|-------------------|
|-----------------------|-------------------|
|--0--0--0--0--0--0-5-5-|-5-5-5-5-5-5--3--3-|
|--0--0--0--0--0--0-5-5-|-5-5-5-5-5-5--3--3-|
|--0--0--0--0--0--0-5-5-|-5-5-5-5-5-5--3--3-|


   E  E  E  E  E  E  E  E    E  E  E  E  E  E  E  E
|-------------------------|-------------------------|
|-------------------------|-------------------------|
|-12-12-12-12-12-12-14-14-|-14-14-14-14-14-14-10-10-|
|-------------------------|-------------------------|
|-10-10-10-10-10-10-12-12-|-12-12-12-12-12-12--8--8-|
|-------------------------|-------------------------|
|
|  E  E  E  E  E  E  E  E    E  E  E  E  E  E  E  E
|-------------------------|-------------------------|
|-------------------------|-------------------------|
|-------------------------|-------------------------|
|--3--3--3--3--3--3--8--8-|--8--8--8--8--8--8--0--0-|
|--3--3--3--3--3--3--8--8-|--8--8--8--8--8--8--0--0-|
|--3--3--3--3--3--3--8--8-|--8--8--8--8--8--8--0--0-|


   E  E  E  E  E  E E E   E E E E E E  E  E
|-----------------------|-------------------|
|-----------------------|-------------------|
|-10-10-10-10-10-10-9-9-|-9-9-9-9-9-9-12-12-|
|-----------------------|-------------------|
|--8--8--8--8--8--8-7-7-|-7-7-7-7-7-7-10-10-|
|-----------------------|-------------------|
|
|  E  E  E  E  E  E E E   E E E E E E  E  E
|-----------------------|-------------------|
|-----------------------|-------------------|
|-----------------------|-------------------|
|--0--0--0--0--0--0-5-5-|-5-5-5-5-5-5--3--3-|
|--0--0--0--0--0--0-5-5-|-5-5-5-5-5-5--3--3-|
|--0--0--0--0--0--0-5-5-|-5-5-5-5-5-5--3--3-|


   E   E  E  E  E  E  E  E    E  E  E  E  E  E  E  E
|--------------------------|-------------------------|
|--------------------------|-------------------------|
|-12--12-12-12-12-12-10-10-|-10-10-10-10-10-10-10-10-|
|--------------------------|-------------------------|
|-10--10-10-10-10-10--8--8-|--8--8--8--8--8--8--8--8-|
|--------------------------|-------------------------|
|
|  E   E  E  E  E  E  E  E    E  E  E  E  E  E  E  E
|--------------------------|-------------------------|
|--------------------------|-------------------------|
|--------------------------|-------------------------|
|--3---3--3--3--3--3--8--8-|--8--8--8--8--8--8--8--8-|
|--3---3--3--3--3--3--8--8-|--8--8--8--8--8--8--8--8-|
|--3---3--3--3--3--3--8--8-|--8--8--8--8--8--8--8--8-|
|
| Gtr III
|  H.                 E  E    E  E  E  E  E  E  E  E
|--------------------------|-------------------------|
|--------------------------|-------------------------|
|--------------------19-19-|-19-19-19-19-19-19-19-19-|
|--------------------------|-------------------------|
|--------------------17-17-|-17-17-17-17-17-17-17-17-|
|--------------------------|-------------------------|


                        Pre-Outro
   E  E  E  E  E  E Q    W
|----------------------|------------------------|
|----------------------|------------------------|
|-10-10-10-10-10-10----|------------------------|
|----------------------|------------------------|
|--8--8--8--8--8--8----|------------------------|
|----------------------|------------------------|
|
|  E  E  E  E  E  E Q    W
|----------------------|------------------------|
|----------------------|------------------------|
|----------------------|------------------------|
|--8--8--8--8--8--8----|------------------------|
|--8--8--8--8--8--8----|------------------------|
|--8--8--8--8--8--8----|------------------------|
|
|                        PM----|         PM|
|  E  E  E  E  E  E Q    S S S S E Q  Q  S S
|----------------------|------------------------|
|----------------------|------------------------|
|-19-19-19-19-19-19-7--|-7-7-7-7-6-0--7--7-7----|
|-------------------0--|-0-0-0-0-0-0--0--0-0----|
|-17-17-17-17-17-17----|------------------------|
|----------------------|------------------------|


                          Outro
                                  PM    PM
  W                        Q  Q   Q   E E
|------------------------|----------------|
|------------------------|----------------|
|------------------------|----------------|
|------------------------|----8---0--/5-0-|
|------------------------|----8---0--/5-0-|
|------------------------|----8---0--/5-0-|
|
|                                 PM    PM
| W                        Q  Q   Q   E E
|------------------------|----------------|
|------------------------|----------------|
|------------------------|----------------|
|------------------------|----8---0--/5-0-|
|------------------------|----8---0--/5-0-|
|------------------------|----8---0--/5-0-|
|
| PM|   PM|   PM----|
| S S E S S E S S S S Q    Q  H.
|------------------------|----------------|
|------------------------|----------------|
|-7-7-6-6-6-7-7-7-7-7-6--|-0--------------|
|-0-0-0-0-0-0-0-0-0-0-0--|-0--------------|
|------------------------|----------------|
|------------------------|----------------|


          PM    PM     PM|     PM
  +E   Q  Q   E E  E   E E  Q  Q   Q
|--------------------|------------------|
|--------------------|------------------|
|--------------------|------------------|
|-(0)-/8--0--/5-0-/8-|-0-0-/5--0--/8----|
|-(0)-/8--0--/5-0-/8-|-0-0-/5--0--/8----|
|-(0)-/8--0--/5-0-/8-|-0-0-/5--0--/8----|
|
|         PM    PM     PM|     PM
| +E   Q  Q   E E  E   E E  Q  Q   Q
|--------------------|------------------|
|--------------------|------------------|
|--------------------|------------------|
|-(0)-/8--0--/5-0-/8-|-0-0-/5--0--/8----|
|-(0)-/8--0--/5-0-/8-|-0-0-/5--0--/8----|
|-(0)-/8--0--/5-0-/8-|-0-0-/5--0--/8----|
|
|  W                   W
|--------------------|------------------|
|--------------------|------------------|
|--------------------|------------------|
|--------------------|------------------|
|--------------------|------------------|
|--------------------|------------------|


  PM    PM     PM         PM   PM|       PM-----|    PM        PM    PM
  Q   E Q   Q  E   +E   E E  E E E  Q    E E Q  E Q  E   +E  E Q  Q  Q
|----------------|---------------------|---------------|------------------|
|----------------|---------------------|---------------|------------------|
|----------------|---------------------|---------------|------------------|
|-0--/5-0--/8--0-|-(0)-/5-0-/8-0-0-/5--|-0-1-0--0-1--0-|-(0)-1-0--1--0----|
|-0--/5-0--/8--0-|-(0)-/5-0-/8-0-0-/5--|-0-1-0--0-1--0-|-(0)-1-0--1--0----|
|-0--/5-0--/8--0-|-(0)-/5-0-/8-0-0-/5--|-0-1-0--0-1--0-|-(0)-1-0--1--0----|
|
| PM    PM     PM         PM   PM|       PM-----|    PM        PM    PM
| Q   E Q   Q  E   +E   E E  E E E  Q    E E Q  E Q  E   +E  E Q  Q  Q
|----------------|---------------------|---------------|------------------|
|----------------|---------------------|---------------|------------------|
|----------------|---------------------|---------------|------------------|
|-0--/5-0--/8--0-|-(0)-/5-0-/8-0-0-/5--|-0-1-0--0-1--0-|-(0)-1-0--1--0----|
|-0--/5-0--/8--0-|-(0)-/5-0-/8-0-0-/5--|-0-1-0--0-1--0-|-(0)-1-0--1--0----|
|-0--/5-0--/8--0-|-(0)-/5-0-/8-0-0-/5--|-0-1-0--0-1--0-|-(0)-1-0--1--0----|


    PM  PM|    PM--|      PM   PM      PM   PM  PM--|    PM     PM
  E E E E E Q  E   +E  Q  Q  E Q    Q  Q  E E E E   E Q  E E Q  E
|----------------|----------------|---------------|------------------|
|----------------|----------------|---------------|------------------|
|----------------|----------------|---------------|------------------|
|-1-0-1-0-0-1--0-|-(0)-1--0--1-0--|-1--0--1-0-1-0-|-0-1--0-1-0--0----|
|-1-0-1-0-0-1--0-|-(0)-1--0--1-0--|-1--0--1-0-1-0-|-0-1--0-1-0--0----|
|-1-0-1-0-0-1--0-|-(0)-1--0--1-0--|-1--0--1-0-1-0-|-0-1--0-1-0--0----|
|
|   PM  PM|    PM--|      PM   PM      PM   PM  PM--|    PM     PM
| E E E E E Q  E   +E  Q  Q  E Q    Q  Q  E E E E   E Q  E E Q  E
|----------------|----------------|---------------|------------------|
|----------------|----------------|---------------|------------------|
|----------------|----------------|---------------|------------------|
|-1-0-1-0-0-1--0-|-(0)-1--0--1-0--|-1--0--1-0-1-0-|-0-1--0-1-0--0----|
|-1-0-1-0-0-1--0-|-(0)-1--0--1-0--|-1--0--1-0-1-0-|-0-1--0-1-0--0----|
|-1-0-1-0-0-1--0-|-(0)-1--0--1-0--|-1--0--1-0-1-0-|-0-1--0-1-0--0----|


                  >
   PM---------------------------------------|
  +W             +W            +W            +W
|--------------|------------|-------------|---------|
|--------------|------------|-------------|---------|
|--------------|------------|-------------|---------|
|-(0)----------|-(0)--------|--(0)--------|--(0)----|
|-(0)----------|-(0)--------|--(0)--------|--(0)----|
|-(0)----------|-(0)--------|--(0)--------|--(0)----|
|
|                 >
|  PM---------------------------------------|
| +W             +W            +W            +W
|--------------|------------|-------------|---------|
|--------------|------------|-------------|---------|
|--------------|------------|-------------|---------|
|-(0)----------|-(0)--------|--(0)--------|--(0)----|
|-(0)----------|-(0)--------|--(0)--------|--(0)----|
|-(0)----------|-(0)--------|--(0)--------|--(0)----|
|
| Gtr III
|           <
|  H.       Q     W            +W            +W
|----------12--|-12---------|-(12)--------|-(12)----|
|--------------|------------|-------------|---------|
|--------------|------------|-------------|---------|
|--------------|------------|-------------|---------|
|--------------|------------|-------------|---------|
|--------------|------------|-------------|---------|


    PM--------------------------------------|
   +W            +W            +W            +W
|-------------|-------------|-------------|---------*|
|-------------|-------------|-------------|---------*|
|-------------|-------------|-------------|---------*|
|--(0)--------|--(0)--------|--(0)--------|--(0)----*|
|--(0)--------|--(0)--------|--(0)--------|--(0)----*|
|--(0)--------|--(0)--------|--(0)--------|--(0)----*|
|
|   PM--------------------------------------|
|  +W            +W            +W            +W
|-------------|-------------|-------------|---------*|
|-------------|-------------|-------------|---------*|
|-------------|-------------|-------------|---------*|
|--(0)--------|--(0)--------|--(0)--------|--(0)----*|
|--(0)--------|--(0)--------|--(0)--------|--(0)----*|
|--(0)--------|--(0)--------|--(0)--------|--(0)----*|
|
|  +W            +W            +W            +W
|-(12)--------|-(12)--------|-(12)--------|-(12)----*|
|-------------|-------------|-------------|---------*|
|-------------|-------------|-------------|---------*|
|-------------|-------------|-------------|---------*|
|-------------|-------------|-------------|---------*|
|-------------|-------------|-------------|---------*|



Duration Legend
---------------
W - whole; H - half; Q - quarter; E - 8th; S - 16th; T - 32nd; X - 64th; a - acciaccatura
+ - note tied to previous; . - note dotted; .. - note double dotted
Uncapitalized letters represent notes that are staccato (1/2 duration)
Irregular groupings are notated above the duration line
Duration letters will always appear directly above the note/fret number it represents the
duration for.  Duration letters with no fret number below them represent rests.  Multi-
bar rests are notated in the form Wxn, where n is the number of bars to rest for.  Low
melody durations appear below the staff

Tablature Legend
----------------
 h   - hammer-on
 p   - pull-off
 b   - bend
 pb  - pre-bend
 r   - bend release (if no number after the r, then release immediately)
 /\  - slide into or out of (from/to "nowhere")
 s   - legato slide
 S   - shift slide
 - natural harmonic
[n]  - artificial harmonic
n(n) - tapped harmonic
 ~   - vibrato
 tr  - trill
 T   - tap
 TP  - trem. picking
 PM  - palm muting
\n/  - tremolo bar dip; n = amount to dip
 \n  - tremolo bar down
 n/  - tremolo bar up
/n\  - tremolo bar inverted dip
 =   - hold bend; also acts as connecting device for hammers/pulls
 <> - volume swell (louder/softer)
 x   - on rhythm slash represents muted slash
 o   - on rhythm slash represents single note slash

Misc Legend
-----------
 |  - bar
||  - double bar
||o - repeat start
o|| - repeat end
*|  - double bar (ending)
 :  - bar (freetime)
 $  - Segno
 &  - Coda
Tempo markers -  = BPM(8/16=s8/s16), where s8 = swing 8ths, s16 = swing 16ths

Добавлено: 03.10.2013
Другие материалы по этой песне:
  • Аккорды и текст

Страница создана 15.09.2013
http://primanota.ru/norma-jean/lairsenic-chords.htm
Привет, Гость.
Предлагаем пройти революционный курс по гитаре.
Подарок от PrimaNota.Ru, забирай!