PrimaNota.ru - самый крупный в мире бесплатный архив песенных текстов, аккордов, табулатур и нот


Norma Jean - Innocent Bystanders United - таба, видео

Регистрация Запомнить меня
Войти через:  Facebook Google Twitter Vk Yandex Mail.ru

Norma Jean - Innocent Bystanders United - таба, видео

Печатать
Просмотров: 93
-----------------------------------------------------------------
Innocent Bystanders United - Norma Jean
-----------------------------------------------------------------
Tabbed by: Jake Miller (millarso)
Email: millarso2.0@gmail.com
Tuning: Drop Db

After a lengthy section of drums and lo-fi synth, I think, the guitar
kicks in with this...

Intro/Section 1
Guitar 1(lo-fi fuzz, decays in the middle of some phrases)
eb|-13--13--13-----15-----15--15--15--------------------------------------|
Bb|---13--13--13-13--13-13--13--13--------14-----14--14-----14-----14--14-|
Gb|----------------------------------17-17--17-17--17--17-17--17-17--17---|
Db|-----------------------------------------------------------------------|x6
Ab|-----------------------------------------------------------------------|
Db|-----------------------------------------------------------------------|

Section 2
Guitar 1(lo-fi fuzz, decays in the middle of some phrases)
eb|-13--13--13-----15-----15--15--15--------------------------------------|
Bb|---13--13--13-13--13-13--13--13--------14-----14--14-----14-----14--14-|
Gb|----------------------------------17-17--17-17--17--17-17--17-17--17---|
Db|-----------------------------------------------------------------------|x8
Ab|-----------------------------------------------------------------------|
Db|-----------------------------------------------------------------------|

Guitar 2
eb|------------------------------------|
Bb|------------------------------------|
Gb|-7------8------7------8-------------|
Db|-x(x7)--x(x9)--x(x7)--x(x9)-x-x-x-x-|x4
Ab|-5------6------5------6-----x-x-x-x-|
Db|----------------------------x-x-x-x-|

Guitar 3
eb|------------------------------------|
Bb|------------------------------------|
Gb|-7----------------------------------|
Db|-x(x32)---------------------x-x-x-x-|x4
Ab|-5--------------------------x-x-x-x-|
Db|----------------------------x-x-x-x-|

Guitar 2
eb|----------------------------------------------------------------------------|
Bb|----------------------------------------------------------------------------|
Gb|-7------8------10------12------14------15------10------9------7-------------|
Db|-x(x7)--x(x9)---x(x7)---x(x9)---x(x7)---x(x9)---x(x7)--x(x5)--x(x4)-x-x-x-x-|
Ab|-5------6-------8------10------12------13-------8------7------5-----x-x-x-x-|
Db|--------------------------------------------------------------------x-x-x-x-|
Guitar 3
eb|----------------------------------------------------------------------------|
Bb|----------------------------------------------------------------------------|
Gb|-7-------------10------12------14--------------10-------------7-------------|
Db|-x(x16)---------x(x7)---x(x9)---x(x16)----------x(x16)--------x(x4)-x-x-x-x-|
Ab|-5--------------8------10------12---------------8-------------5-----x-x-x-x-|
Db|--------------------------------------------------------------------x-x-x-x-|

Guitar 2
eb|---------------------------------------------------------------------------|
Bb|---------------------------------------------------------------------------|
Gb|-7------8------10------12------14------15------17------19------------------|
Db|-x(x7)--x(x9)---x(x7)---x(x9)---x(x7)---x(x9)---x(x7)---x(x9)--0-----------|
Ab|-5------6-------8------10------12------13------15------17------0(let-ring)-|
Db|---------------------------------------------------------------0-----------|

Guitar 3
eb|---------------------------------------------------------------------------|
Bb|---------------------------------------------------------------------------|
Gb|-7-------------10------12------14--------------17------19------------------|
Db|-x(x16)---------x(x7)---x(x9)---x(x16)----------x(x7)---x(x9)--0-----------|
Ab|-5--------------8------10------12--------------15------17------0(let-ring)-|
Db|---------------------------------------------------------------0-----------|

After this, there is a long section of feedback and samples before...

Section 3
Guitar 1
eb|-------------------------------------|
Bb|-------------------------------------|
Gb|----7--7-9--10---14s12-12---12s10-10-|
Db|-0--x--x-x---x-0--x--x--x-0--x--x--x-|x4
Ab|-0--5--5-7---8-0-12s10-10-0-10s-8--8-|
Db|-0-------------0----------0----------|

Guitar 2
eb|-------------------------------------|
Bb|-------------------------------------|
Gb|-------------------------------------|
Db|-0--0--0--0--0--0--7--7--7--8--8--8--|x4
Ab|-0--0--0--0--0--0--7--7--7--8--8--8--|
Db|-0--0--0--0--0--0--7--7--7--8--8--8--|

Section 4
Guitar 1
eb|------------------------------------------------------------------|
Bb|------------------------------------------------------------------|
Gb|-5h7-7-5-8-7--5h7-7-5-5h7-7-5-5h7-7-5-8-7--7h10-10-10-10h12-12-12-|
Db|-0---0-0-0-0--0---0-0-0---0-0-0---0-0-0-0--0-----0--0--0-----0--0-|x2
Ab|------------------------------------------------------------------|
Db|------------------------------------------------------------------|

Guitar 2
     1st time                   2nd time
eb|-------------|-----------------------------------------|
Bb|-------------|-----------------------------------------|
Gb|-------------|-----------------------------------------|
Db|-0-----------|-0---0-0---0---0-0---0-0--0-0---0---0-0--|
Ab|-0(let-ring)-|-0---0-0---0---0-0---0-0--0-0---0---0-0--|
Db|-0-----------|-0---0-0---0---0-0---0-0--0-0---0---0-0--|
                  .   . .   .   . .   . .  . .   .   . .

Guitar 1
eb|-------------------------------------------------------------------------------------|
Bb|-12h14-14-12-15-14-12h14-14-12-12h14-14-12-12h14-14-12-15-14-15h17-17-17-17h19-19-19-|
Gb|--0-----0--0--0--0--0-----0--0--0-----0--0--0-----0--0--0--0--0-----0--0--0-----0--0-|
Db|-------------------------------------------------------------------------------------|
Ab|-------------------------------------------------------------------------------------|
Db|-------------------------------------------------------------------------------------|

Guitar 2
eb|------------------------------------------------------------------|
Bb|------------------------------------------------------------------|
Gb|-5h7-7-5-8-7--5h7-7-5-5h7-7-5-5h7-7-5-8-7--7h10-10-10-10h12-12-12-|
Db|-0---0-0-0-0--0---0-0-0---0-0-0---0-0-0-0--0-----0--0--0-----0--0-|
Ab|------------------------------------------------------------------|
Db|------------------------------------------------------------------|

Section 5
Guitar 1
eb|--------------------------------------------------------------|
Bb|--------------------------------------------------------------|
Gb|----7-7-9-10---14s12-12---10s9-9---7-7s9-5---2--2--2--3--3--3-|
Db|-0--x-x-x--x-7--x--x--x-8--x-x-x-0-x-x-x-x---x--x--x--x--x--x-|x2
Ab|-0--5-5-7--8-7-12s10-10-8--8s7-7-0-5-5s7-3---0--0--0--1--1--1-|
Db|-0-----------7----------8--------0----------------------------|

Guitar 2
eb|--------------------------------------------------------------|
Bb|--------------------------------------------------------------|
Gb|--------------------------------------------------------------|
Db|-0--0--0--0---7--7--7--8--8--8--0--0--0--0---3--3--3--5--5--5-|x2
Ab|-0--0--0--0---7--7--7--8--8--8--0--0--0--0---3--3--3--5--5--5-|
Db|-0--0--0--0---7--7--7--8--8--8--0--0--0--0---3--3--3--5--5--5-|

Section 4 (x1)

Section 6
Guitar 1
eb|---------------------------------------------------------|
Bb|---------------------------------------------------------|
Gb|-----7-7-7--7-8-8--8-8-8--8-----101010-10------121212-12-|
Db|-5-0-x-x-x--x-x-x--x-x-x--x-8-0--x-x-x--x-10-0--x-x-x--x-|
Ab|-5-0-5-5-5--5-6-6--6-6-6--6-8-0--8-8-8--8-10-0-101010-10-|
Db|-5-0------------------------8-0-----------10-0-----------|

Guitar 2
eb|---------------------------------------------------------|
Bb|---------------------------------------------------------|
Gb|-----7-7-7--7-7-7--7-7-7--7-----101010-10------121212-12-|
Db|-5-0-x-x-x--x-x-x--x-x-x--x-8-0--x-x-x--x-10-0--x-x-x--x-|
Ab|-5-0-5-5-5--5-5-5--5-5-5--5-8-0--8-8-8--8-10-0-101010-10-|
Db|-5-0------------------------8-0-----------10-0-----------|

Guitar 1
eb|------------------------------------------------------------------|
Bb|------------------------------------------------------------------|
Gb|------141414--141515--151515--15------171717-17------191919b20r19-|
Db|-12-0--x-x-x---x-x-x---x-x-x---x-15-0--x-x-x--x-17-0--x-x-x-------|
Ab|-12-0-121212--121313--131313--13-15-0-151515-15-17-0-171717b18r17-|
Db|-12-0----------------------------15-0-----------17-0--------------|

Guitar 2
eb|------------------------------------------------------------------|
Bb|------------------------------------------------------------------|
Gb|------141414--141414--141414--14------171717-17------191919b20r19-|
Db|-12-0--x-x-x---x-x-x---x-x-x---x-15-0--x-x-x--x-17-0--x-x-x-------|
Ab|-12-0-121212--121212--121212--12-15-0-151515-15-17-0-171717b18r17-|
Db|-12-0----------------------------15-0-----------17-0--------------|

Section 6
Both Guitars
eb|-------------------|
Bb|------6-----6---6--|
Gb|------7-----7---7--|
Db|------7-----7---7--|x4
Ab|-0--0---0-0---0----|
Db|-0--0---0-0---0----|

Section 7
Guitar 1
eb|----------------------------------------------------------|
Bb|----------------------------------------------------------|
Gb|----------------------------------------------------------|
Db|----------------------------------------------------------|
Ab|-0--0--0--0--0--0--0--0--0--0--0--0--0--0--0--0-----------|
Db|-0--0--0--0--0--0--0--0--0--0--0--0--0--0--0--0(let-ring)-|

Guitar 2
eb|----------------------------------------------------------|
Bb|-----6-----6---6-----6-----6---6-----6----6---6-----------|
Gb|-----7-----7---7-----7-----7---7-----7----7---7(let-ring)-|
Db|-----7-----7---7-----7-----7---7-----7----7---7-----------|
Ab|----------------------------------------------------------|
Db|----------------------------------------------------------|
The two guitars are playing completely different rhythms above.
You'll have to listen to the track to know when to play.

Section 8
Clean Guitar (separate from the other guitars, in standard)
eb|--------------------------------------------------------|
Bb|--3-3---3---3---3-----------3------3--------------------|
Gb|---------------------3p2p0------------------------------|
Db|-0---0h2-2h3---------------0--0-0h2---0---0--------3p0--|x2
Ab|-------------0h1--------------------3-----------3h5-----|
Eb|-------------------3--------------------1---1-3---------|

The above part plays twice, but is covered up by the guitars entering
before the 2nd time is complete with...

Guitar 1
eb|-------------------|------------------------------|
Bb|-------------------|------------------------------|
Gb|-5--5--5--7--7--7--|---7-7s9-5---2--2--2--3--3--3-|
Db|-x--x--x--x--x--x--|-0-x-x-x-x---x--x--x--x--x--x-|
Ab|-3--3--3--5--5--5--|-0-5-5s7-3---0--0--0--1--1--1-|
Db|-------------------|-0----------------------------|

Guitar 2
eb|------------------|-------------------------------|
Bb|------------------|-------------------------------|
Gb|------------------|-------------------------------|
Db|-7--7--7--8--8--8-|-0--0--0--0---3--3--3--5--5--5-|
Ab|-7--7--7--8--8--8-|-0--0--0--0---3--3--3--5--5--5-|
Db|-7--7--7--8--8--8-|-0--0--0--0---3--3--3--5--5--5-|

Guitar 1
eb|--------------------------------------------------------------|
Bb|--------------------------------------------------------------|
Gb|----7-7-9-10---14s12-12---10s9-9---7-7s9-5---2--2--2--3--3--3-|
Db|-0--x-x-x--x-7--x--x--x-8--x-x-x-0-x-x-x-x---x--x--x--x--x--x-|
Ab|-0--5-5-7--8-7-12s10-10-8--8s7-7-0-5-5s7-3---0--0--0--1--1--1-|
Db|-0-----------7----------8--------0----------------------------|

Guitar 2
eb|--------------------------------------------------------------|
Bb|--------------------------------------------------------------|
Gb|--------------------------------------------------------------|
Db|-0--0--0--0---7--7--7--8--8--8--0--0--0--0---3--3--3--5--5--5-|
Ab|-0--0--0--0---7--7--7--8--8--8--0--0--0--0---3--3--3--5--5--5-|
Db|-0--0--0--0---7--7--7--8--8--8--0--0--0--0---3--3--3--5--5--5-|

Section 9
Guitar 1
eb|---------------------------------------------------------|
Bb|---------------14s1212---10s9-9--------------------------|
Gb|----------------x---------x--------------5---------------|
Db|-0-0-0-2--3--7-12s1010-8--8s7-7-0-0-0-2--5--3-3-3--5-5-5-|
Ab|-0-0-0-2--3--7---------8--------0-0-0-2--3--3-3-3--5-5-5-|
Db|-0-0-0-2--3--7---------8--------0-0-0-2-----3-3-3--5-5-5-|

Guitar 2
eb|----------------------------------------------------|
Bb|----------------------------------------------------|
Gb|------------------------------------5---------------|
Db|-0-0-0-2--3--7-7-7--8-8-8--0-0-0-2--5--3-3-3--5-5-5-|
Ab|-0-0-0-2--3--7-7-7--8-8-8--0-0-0-2--3--3-3-3--5-5-5-|
Db|-0-0-0-2--3--7-7-7--8-8-8--0-0-0-2-----3-3-3--5-5-5-|

Section 6 (x2)

End with...
eb|-------------|
Bb|-------------|
Gb|-------------|
Db|-0-----------|
Ab|-0(let-ring)-|
Db|-0-----------|

The song fades out on Section 8 playing and a piano outro.

This was a beastly song. I hope it works out.
Please rate & comment.
Thanks,
millarso
Добавлено: 29.08.2013
Другие материалы по этой песне:
  • Аккорды и текст

Страница создана 29.08.2013
http://primanota.ru/norma-jean/innocent-bystanders-united-chords.htm
Привет, Гость.
Предлагаем пройти революционный курс по гитаре.
Подарок от PrimaNota.Ru, забирай!