PrimaNota.ru - самый крупный в мире бесплатный архив песенных текстов, аккордов, табулатур и нот


Norma Jean - Face To Face - бас-таба, видео

Регистрация Запомнить меня
Войти через:  Facebook Google Twitter Vk Yandex Mail.ru

Norma Jean - Face To Face - бас-таба, видео

Печатать
Просмотров: 74
bass
      S S E  E  E  E  S S E  E     E  E  E  E  E  E  S S E   
F#||----------------------------|---------------------------|
C#||----------------------------|---------------------------|
G#||------------2---------------|--2-----2-----2------------|
C#||--4-4-4--4-----0--4-4-4--4--|-----0-----0-----0--4-4-4--|


  E  E  E  S S E  E  E  E     E  E  S S E  E  E  E  S S  
---------------------------|----------------------------|
---------------------------|----------------------------|
-----2---------------2-----|--2---------------2---------|
--0-----0--4-4-4--0-----0--|-----0--4-4-4--0-----0--4-4-|


  E  E  E  E  E  E  E  E     S S E  E  E  E  S S E  E     E  E  E  E   
--------------------------|----------------------------|--------------|
--------------------------|----------------------------|--------------|
--------2-----2-----2-----|------------2---------------|--2-----2-----|
--4--0-----0-----0-----0--|--4-4-4--0-----0--4-4-4--0--|-----0-----0--|


  E  E  E  E  E  E  E  E  E  E  E  E     E  E  E  E  E  E  E  E  E  E  E  E   
--------------------------------------|--------------------------------------|
--------------------------------------|--------------------------------------|
--0--------1-----0--------1-----1-----|--0--------1-----0--------1-----1-----|
-----5--0-----0-----5--0-----0-----0--|-----5--0-----0-----5--0-----0-----0--|


  E  E  E  E  E  E  E  E  E  E  E  E     E  E  E  E  E  E  E  E  E  E  E  E   
--------------------------------------|--------------------------------------|
--------------------------------------|--------------------------------------|
--0--------1-----0--------1-----1-----|--0--------1-----0--1-----1-----1-----|
-----5--0-----0-----5--0-----0-----0--|-----5--0-----0--------0-----0-----0--|


  E  E  E  E  E  E  E  E  E  E  E  E     E  E  E  E  E  E  E  E  E  E  E  E   
--------------------------------------|--------------------------------------|
--------------------------------------|--------------------------------------|
--0--------1-----0--------1-----1-----|--0--------1-----0--------1-----1-----|
-----5--0-----0-----5--0-----0-----0--|-----5--0-----0-----5--0-----0-----0--|


  E  E  E  E  E  E  E  E  E  E  E  E     E  E  E  E  E  E  E  E  E  E  E  E   
--------------------------------------|--------------------------------------|
--------------------------------------|--------------------------------------|
--0--------1-----0--------1-----1-----|--0--------1-----0--------1-----1-----|
-----5--0-----0-----5--0-----0-----0--|-----5--0-----0-----5--0-----0-----0--|


  E  E  E  E  E  E  E  E  E  E  E  E     E  E  E  E  E  E  E  E  E  E   
--------------------------------------|--------------------------------|
--------------------------------------|--------------------------------|
--0--------1-----0--------1-----1-----|--0--------1-----0--------1-----|
-----5--0-----0-----5--0-----0-----0--|-----5--0-----0-----5--0-----0--|


  E  E  E  E  E  E  E  E  E  E  E  E     E  E  E  E  E  E  E  E  E  E   
--------------------------------------|--------------------------------|
--------------------------------------|--------------------------------|
--0--------1-----0--------1-----1-----|--0--------1-----0--------1-----|
-----5--0-----0-----5--0-----0-----0--|-----5--0-----0-----5--0-----0--|


  E  Q.     E  Q.     E  Q.        S E  E  E  E  E  Q    S  
--------------------------------|--------------------------|
--------------------------------|--------------------------|
--------------------------------|--------------------------|
--0---------0---------0---------|----0--0-----0--0---------|


  E.  E.  E  E.  E.  E     S E  E  E  E  E  Q    S    E.  E.  E  E.  E.  E   
------------------------|--------------------------|------------------------|
------------------------|--------------------------|------------------------|
------------------------|--------------------------|------------------------|
--0---0---0--0---0---0--|----0--0-----0--0---------|--0---0---0--0---0---0--|


  S E  E  E  E  E  Q    S    E.  E.  E  E.  E.  E     S E  E  E  E  E  Q    S  
--------------------------|------------------------|--------------------------|
--------------------------|------------------------|--------------------------|
--------------------------|------------------------|--------------------------|
----0--0-----0--0---------|--0---0---0--0---0---0--|----0--0-----0--0---------|


  E.  E.  E  E.  E.  E     S E  E  E  E  E  Q    S    E.  E.  E  E.  E.  E  E   
------------------------|--------------------------|---------------------------|
------------------------|--------------------------|---------------------------|
------------------------|--------------------------|---------------------------|
--0---0---0--0---0---0--|----0--0-----0--0---------|--0---0---0--0---0---0--0--|


  E.  E.  E  E.  E.  E  E     E.  E.  E  E.  E.  E  E   
---------------------------|---------------------------|
---------------------------|---------------------------|
---------------------------|---------------------------|
--0---0---0--0---0---0--0--|--0---0---0--0---0---0--0--|


  E.  E.  E  E.  E.  E  E     E.  E.  E  E.  E.  E  E   
---------------------------|---------------------------|
---------------------------|---------------------------|
---------------------------|---------------------------|
--0---0---0--0---0---0--0--|--0---0---0--0---0---0--0--|


  E.  E.  E  E.  E.  E  E     E.  E.  E  E.  E.  E  E   
---------------------------|---------------------------|
---------------------------|---------------------------|
---------------------------|---------------------------|
--0---0---0--0---0---0--0--|--0---0---0--0---0---0--0--|


  E.  E.  E  E.  E.  E  E     E  E  E  E  E  E  E  E  E   
---------------------------|-----------------------------|
---------------------------|-----------------------------|
---------------------------|-----------------------------|
--0---0---0--0---0---0--0--|-----0--0-----0--0-----------|


  S. S. S. S. S. S. S. S.    S. S. S. S. S. S. S. S.  
--------------------------|--------------------------|
--------------------------|--------------------------|
-----5--5--5--5--5--5--5--|-----5--5--5--5--5--5--5--|
--0-----------------------|--0-----------------------|


  S. S. S. S. S. S. S. S.    S. S. S. S. S. S. E.   
--------------------------|------------------------|
--------------------------|------------------------|
-----5--5--5--5--5--5--5--|-----5--5--5------------|
--0-----------------------|--0-----------0--0------|


  S S S S S S S S S S S S S S S S    S S S S S S S S S S S S S S S S  
----------------------------------|----------------------------------|
----------------------------------|----------------------------------|
--5-5-5-5-5-5-5-5-5-5-5-5-5-5-5-5-|--5-5-5-5-5-5-5-5-5-5-5-5-5-5-5-5-|
----------------------------------|----------------------------------|


  S S S S S S S S S S S S S S S S    S S S S S S S S S S S S S S S S  
----------------------------------|----------------------------------|
----------------------------------|----------------------------------|
--5-5-5-5-5-5-5-5-5-5-5-5-5-5-5-5-|--5-5-5-5-5-5-5-5-5-5-5-5-5-5-5-5-|
----------------------------------|----------------------------------|


  S E.  S T T T T T T S E.  S S E     S E.  S T T T T T T S E.  S S E   
-----------------------------------|-----------------------------------|
-----------------------------------|-----------------------------------|
----5-------------------5-------5--|----5-------------------5-------5--|
--0-----0-0-0-0-0-0-0-0-----0-0----|--0-----0-0-0-0-0-0-0-0-----0-0----|


  S E.  S T T T T T T S E.  S S E     S E.  S T T T T T T S E.  S S E   
-----------------------------------|-----------------------------------|
-----------------------------------|-----------------------------------|
----5-------------------5-------5--|----5-------------------5-------5--|
--0-----0-0-0-0-0-0-0-0-----0-0----|--0-----0-0-0-0-0-0-0-0-----0-0----|


  S E.  S T T T T T T S E.  S S E     S E.  S T T T T T T S E.  S S E   
-----------------------------------|-----------------------------------|
-----------------------------------|-----------------------------------|
----5-------------------5-------5--|----5-------------------5-------5--|
--0-----0-0-0-0-0-0-0-0-----0-0----|--0-----0-0-0-0-0-0-0-0-----0-0----|


  S E.  S T T T T T T S E.  S S E     S E.  S T T T T T T S E.  S S E   
-----------------------------------|-----------------------------------|
-----------------------------------|-----------------------------------|
----5-------------------5-------5--|----5-------------------5-------5--|
--0-----0-0-0-0-0-0-0-0-----0-0----|--0-----0-0-0-0-0-0-0-0-----0-0----|


  S E.  S T T T T T T S Q    S E     S E.  S T T T T T T S Q    S E   
----------------------------------|----------------------------------|
----------------------------------|----------------------------------|
----------------------------------|----------------------------------|
--0-0---0-0-0-0-0-0-0-0-0----0-0--|--0-0---0-0-0-0-0-0-0-0-0----0-0--|


  S E.  S T T T T T T S Q    S E     S E.  S T T T T T T S Q    S E   
----------------------------------|----------------------------------|
----------------------------------|----------------------------------|
----------------------------------|----------------------------------|
--0-0---0-0-0-0-0-0-0-0-0----0-0--|--0-0---0-0-0-0-0-0-0-0-0----0-0--|


  E  E  E  E  E  E  E  E  E  E  E  E     E  E  E  E  E  E  E  E  E  E  E  E   
--------------------------------------|--------------------------------------|
--------------------------------------|--------------------------------------|
--------------------------1-----1-----|-----------1--------------1-----1-----|
--------------------------------------|--------------------------------------|


  E  E  E  E  E  E  E  E  E  E  E  E     E  E  E  E  E  E  E  E  E  E  E  E   
--------------------------------------|--------------------------------------|
--------------------------------------|--------------------------------------|
--0--------1-----0--------1-----1-----|--0--------1-----0--------1-----1-----|
-----5--0-----0-----5--0-----0-----0--|-----5--0-----0-----5--0-----0-----0--|


  E  E  E  E  E  E  E  E  E  E  E  E     E  E  E  E  E  E  E  E  E  E  E  E   
--------------------------------------|--------------------------------------|
--------------------------------------|--------------------------------------|
--0--------1-----0--------1-----1-----|--0--------1-----0--1-----1-----1-----|
-----5--0-----0-----5--0-----0-----0--|-----5--0-----0--------0-----0-----0--|


  E  E  E  E  E  E  E  E  E  E  E  E     E  E  E  E  E  E  E  E  E  E  E  E   
--------------------------------------|--------------------------------------|
--------------------------------------|--------------------------------------|
--0--------1-----0--------1-----1-----|--0--------1-----0--------1-----1-----|
-----5--0-----0-----5--0-----0-----0--|-----5--0-----0-----5--0-----0-----0--|


  E  E  E  E  E  E  E  E  E  E  E  E     E  E  E  E  E  E  E  E  E  E  E  E   
--------------------------------------|--------------------------------------|
--------------------------------------|--------------------------------------|
--0--------1-----0--------1-----1-----|--0--------1-----0--------1-----1-----|
-----5--0-----0-----5--0-----0-----0--|-----5--0-----0-----5--0-----0-----0--|


  E  E  E  E  E  E  E  E  E  E  E  E     E  E  E  E  E  E  E  E  E  E  E  E   
--------------------------------------|--------------------------------------|
--------------------------------------|--------------------------------------|
--0--------1-----0--------1-----1-----|--0--------1-----0--------1-----1-----|
-----5--0-----0-----5--0-----0-----0--|-----5--0-----0-----5--0-----0-----0--|


  E  E  E  E  E  E  E  E  E  E  E  E     E  E  E  E  E  E  E  E  E  E  E  E   
--------------------------------------|--------------------------------------|
--------------------------------------|--------------------------------------|
--0--------1-----0--------1-----1-----|--0--------1-----0--------1-----1-----|
-----5--0-----0-----5--0-----0-----0--|-----5--0-----0-----5--0-----0-----0--|


  E  E  E  E  E  E  E  E     E  E  E  E  E  E  E  E   
--------------------------|--------------------------|
--------------------------|--------------------------|
--------------------------|--------------------------|
--8--0--8--0--8--0--8--0--|--8--0--8--0--8--0--8--0--|


  E  E  E  E  E  E  E  E     E  E  E  E  E  E  E  E   
--------------------------|--------------------------|
--------------------------|--------------------------|
--------------------------|--------------------------|
--8--0--8--0--8--0--8--0--|--8--0--8--0--8--0--8--0--|


  E  E  E  E  E  E  E  E     E  E  E  E  H                      
--------------------------|-----------------------|-----------||
--------------------------|-----------------------|-----------||
--------------------------|-----------------------|-----------||
--8--0--8--0--8--0--8--0--|--8--0--8--0--8--------|-----------||




Duration Legend
---------------
W - whole
H - half
Q - quarter
E - 8th
S - 16th
T - 32nd
X - 64th
. - note dotted
|-n-|  - n-tuplets


Tablature Legend
----------------
L - tied note
x - dead note
g - grace note
(n) - ghost note
> - accentuded note
NH - natural harmonic
AH - artificial harmonic
TH - tapped harmonic
SH - semi harmonic
PH - pitch harmonic
h - hammer on
p - pull off
b - bend
br - bendRelease
pb - preBend
pbr - preBendRelease
brb - bendReleaseBend
\n/ - tremolo bar dip
\n - tremolo bar dive
-/n - tremolo bar Release up
/n\ - tremolo bar inverted dip
/n - tremolo bar return
-\n - tremolo bar Release down
S - shift slide
s - legato slide
/ -  slide into from below or out of upwards
\ -  slide into from above or out of downwards
~ - vibrato
W - wide vibrato
tr - trill
TP - tremolo picking
T - tapping
S - slap
P - pop
< - fade in
^ - brush up
v - brush down
Добавлено: 21.01.2014
Другие материалы по этой песне:
  • Аккорды и текст

Страница создана 21.01.2014
http://primanota.ru/norma-jean/face-to-face-chords.htm
Привет, Гость.
Предлагаем пройти революционный курс по гитаре.
Подарок от PrimaNota.Ru, забирай!