PrimaNota.ru - самый крупный в мире бесплатный архив песенных текстов, аккордов, табулатур и нот


Norma Jean - A Temperamental Widower - текст песни, таба, бас-таба, видео

Регистрация Запомнить меня
Войти через:  Facebook Google Twitter Vk Yandex Mail.ru

Norma Jean - A Temperamental Widower - текст песни, таба, бас-таба, видео

Печатать
Просмотров: 116
Tuning: C# G# C# F# A# D#




                                    \0/                                    
      S S    W                      W                    W                 
D#||------|-------------------|-----------------------|-------------------|
A#||------|-------------------|-----------------------|-------------------|
F#||------|-------------------|-----------------------|-------------------|
C#||------|-------------------|-----------------------|--3----------------|
G#||------|-------------------|--<>(4)----------------|-------------------|
C#||--3-3-|--3----------------|--<>(4)----------------|--3----------------|


  H.              S S S S S S S S S S S S S S S S  
---------------|----------------------------------|
---------------|----------------------------------|
---------------|----------------------------------|
--L------------|--3-3-3-3-3-3-3-3-3-3-3-3-3-3-3-3-|
---------------|--3-3-3-3-3-3-3-3-3-3-3-3-3-3-3-3-|
--L------------|--3-3-3-3-3-3-3-3-3-3-3-3-3-3-3-3-|


  S S S S S S S S S S S S S S S S    S S S S S S S S S S S S S S S S  
----------------------------------|----------------------------------|
----------------------------------|----------------------------------|
----------------------------------|----------------------------------|
--3-3-3-3-3-3-3-3-3-3-3-3-3-3-3-3-|--3-3-3-3-3-3-3-3-3-3-3-3-3-3-3-3-|
--3-3-3-3-3-3-3-3-3-3-3-3-3-3-3-3-|--3-3-3-3-3-3-3-3-3-3-3-3-3-3-3-3-|
--3-3-3-3-3-3-3-3-3-3-3-3-3-3-3-3-|--3-3-3-3-3-3-3-3-3-3-3-3-3-3-3-3-|


  S S S S S S S S S S S S S S S S     S  S  S  S S  E   E   E  E.   
----------------------------------|--------------------------------|
----------------------------------|--------------------------------|
----------------------------------|--------------------------------|
--3-3-3-3-3-3-3-3-3-3-3-3-3-3-3-3-|--------------------------------|
--3-3-3-3-3-3-3-3-3-3-3-3-3-3-3-3-|-------------------------3--3---|
--3-3-3-3-3-3-3-3-3-3-3-3-3-3-3-3-|--17-15-17\-L---12--15\--3--3---|


   S  S  S  S S  E   E   E  E.      S  S  S  S S  E   E   E  E.   
--------------------------------|--------------------------------|
--------------------------------|--------------------------------|
--------------------------------|--------------------------------|
--------------------------------|--------------------------------|
-------------------------3--3---|-------------------------3--3---|
--17-15-17\-L---12--15\--3--3---|--17-15-17\-L---12--15\--3--3---|


   S  S  S  S S  E   E       W                    W                 
-------------------------|---------------------|-------------------|
-------------------------|---------------------|-------------------|
-------------------------|---------------------|-------------------|
-------------------------|---------------------|-------------------|
-------------------------|---------------------|-------------------|
--17-15-17\-L---12--15\--|--(3)----------------|--L----------------|


  S S S S S S S S S S S S S S S S    S S S S S S S S S S S S S S S S  
----------------------------------|----------------------------------|
----------------------------------|----------------------------------|
----------------------------------|----------------------------------|
--3-3-3-3-3-3-3-3-3-3-3-3-3-3-3-3-|--3-3-3-3-3-3-3-3-3-3-3-3-3-3-3-3-|
--3-3-3-3-3-3-3-3-3-3-3-3-3-3-3-3-|--3-3-3-3-3-3-3-3-3-3-3-3-3-3-3-3-|
--3-3-3-3-3-3-3-3-3-3-3-3-3-3-3-3-|--3-3-3-3-3-3-3-3-3-3-3-3-3-3-3-3-|


  S S S S S S S S S S S S S S S S    S S S S S S S S S S S S S S S S  
----------------------------------|----------------------------------|
----------------------------------|----------------------------------|
----------------------------------|----------------------------------|
--3-3-3-3-3-3-3-3-3-3-3-3-3-3-3-3-|--3-3-3-3-3-3-3-3-3-3-3-3-3-3-3-3-|
--3-3-3-3-3-3-3-3-3-3-3-3-3-3-3-3-|--3-3-3-3-3-3-3-3-3-3-3-3-3-3-3-3-|
--3-3-3-3-3-3-3-3-3-3-3-3-3-3-3-3-|--3-3-3-3-3-3-3-3-3-3-3-3-3-3-3-3-|


   S  S  S  S S  E   E   E  E.      S  S  S  S S  E   E   E  E.   
--------------------------------|--------------------------------|
--------------------------------|--------------------------------|
--------------------------------|--------------------------------|
--------------------------------|--------------------------------|
-------------------------3--3---|-------------------------3--3---|
--17-15-17\-L---12--15\--3--3---|--17-15-17\-L---12--15\--3--3---|


   S  S  S  S S  E   E   E  E.      S  S  S  S S  E   E   E  E.   
--------------------------------|--------------------------------|
--------------------------------|--------------------------------|
--------------------------------|--------------------------------|
--------------------------------|--------------------------------|
-------------------------3--3---|-------------------------3--3---|
--17-15-17\-L---12--15\--3--3---|--17-15-17\-L---12--15\--3--3---|


  E  E  S S S E  E  E  S S S    E  S S E  S E  E  E  S S S  
-----------------------------|-----------------------------|
-----------------------------|-----------------------------|
-----------------------------|-----------------------------|
--2--2------0-2--5--1--1-1-1-|--2--2-2-2--0-2--5--1--1-1-1-|
--2--2------0-2--5--1--1-1-1-|--2--2-2-2--0-2--5--1--1-1-1-|
--2--2------0-2--5--1--1-1-1-|--2--2-2-2--0-2--5--1--1-1-1-|


  E  E  S S S E  E  E  S S S    E  S S E  S E  E  E  S S S  
-----------------------------|-----------------------------|
-----------------------------|-----------------------------|
-----------------------------|-----------------------------|
--2--2------0-2--5--1--1-1-1-|--2--2-2-2--0-2--5--1--1-1-1-|
--2--2------0-2--5--1--1-1-1-|--2--2-2-2--0-2--5--1--1-1-1-|
--2--2------0-2--5--1--1-1-1-|--2--2-2-2--0-2--5--1--1-1-1-|


  E  E  S S S E  E  E  S S S    E  E  S S S E  E  E  S S S  
-----------------------------|-----------------------------|
-----------------------------|-----------------------------|
-----------------------------|-----------------------------|
--2--2--2-2-0-2--5--1--1-1-1-|--2--2--2-2-0-2--5--1--1-1-1-|
--2--2--2-2-0-2--5--1--1-1-1-|--2--2--2-2-0-2--5--1--1-1-1-|
--2--2--2-2-0-2--5--1--1-1-1-|--2--2--2-2-0-2--5--1--1-1-1-|


  E  E  S S S E  E  E  S S S    E  E  S S S E  E  E  S S S  
-----------------------------|-----------------------------|
-----------------------------|-----------------------------|
-----------------------------|-----------------------------|
--2--2--2-2-0-2--5--1--1-1-1-|--2--2--2-2-0-2--5--1--1-1-1-|
--2--2--2-2-0-2--5--1--1-1-1-|--2--2--2-2-0-2--5--1--1-1-1-|
--2--2--2-2-0-2--5--1--1-1-1-|--2--2--2-2-0-2--5--1--1-1-1-|


  TP TP         TP         TP            TP TP         TP         TP          
  S  S  S S  E  S  S S  E  S  S S  E     S  S  S S  E  S  S S  E  S  S S  E   
--------------------------------------|--------------------------------------|
--------------------------------------|--------------------------------------|
--------------------------------------|--------------------------------------|
--------------------------------------|--------------------------------------|
--0--0--9-0-12--0--9-0-12--0--9-0-12--|--0--0--9-0-12--0--9-0-12--0--9-0-12--|
--0--0--9-0-12--0--9-0-12--0--9-0-12--|--0--0--9-0-12--0--9-0-12--0--9-0-12--|


  TP TP         TP         TP            TP TP         TP         TP          
  S  S  S S  E  S  S S  E  S  S S  E     S  S  S S  E  S  S S  E  S  S S  E   
--------------------------------------|--------------------------------------|
--------------------------------------|--------------------------------------|
--------------------------------------|--------------------------------------|
--------------------------------------|--------------------------------------|
--0--0--9-0-12--0--9-0-12--0--9-0-12--|--0--0--9-0-12--0--9-0-12--0--9-0-12--|
--0--0--9-0-12--0--9-0-12--0--9-0-12--|--0--0--9-0-12--0--9-0-12--0--9-0-12--|


  TP TP         TP         TP            TP TP         TP         TP          
  S  S  S S  E  S  S S  E  S  S S  E     S  S  S S  E  S  S S  E  S  S S  E   
--------------------------------------|--------------------------------------|
--------------------------------------|--------------------------------------|
--------------------------------------|--------------------------------------|
--------------------------------------|--------------------------------------|
--0--0--9-0-12--0--9-0-12--0--9-0-12--|--0--0--9-0-12--0--9-0-12--0--9-0-12--|
--0--0--9-0-12--0--9-0-12--0--9-0-12--|--0--0--9-0-12--0--9-0-12--0--9-0-12--|


  TP TP         TP         TP     PM PM  
  S  S  S S  E  S  S S  E  S  S S S  S   
----------------------------------------|
----------------------------------------|
----------------------------------------|
----------------------------------------|
--0--0--9-0-12--0--9-0-12--0--9-8-------|
--0--0--9-0-12--0--9-0-12--0--9-8-0--0--|


  TP TP         TP         TP     PM PM  
  S  S  S S  E  S  S S  E  S  S S S  S   
----------------------------------------|
----------------------------------------|
----------------------------------------|
----------------------------------------|
--0--0--9-0-12--0--9-0-12--0--9-8-------|
--0--0--9-0-12--0--9-0-12--0--9-8-0--0--|


  TP TP         TP         TP     PM PM  
  S  S  S S  E  S  S S  E  S  S S S  S   
----------------------------------------|
----------------------------------------|
----------------------------------------|
----------------------------------------|
--0--0--9-0-12--0--9-0-12--0--9-8-------|
--0--0--9-0-12--0--9-0-12--0--9-8-0--0--|


  TP TP         TP         TP     PM PM  
  S  S  S S  E  S  S S  E  S  S S S  S   
----------------------------------------|
----------------------------------------|
----------------------------------------|
----------------------------------------|
--0--0--9-0-12--0--9-0-12--0--9-8-------|
--0--0--9-0-12--0--9-0-12--0--9-8-0--0--|


  TP TP         TP         TP     PM PM  
  S  S  S S  E  S  S S  E  S  S S S  S   
----------------------------------------|
----------------------------------------|
----------------------------------------|
----------------------------------------|
--0--0--9-0-12--0--9-0-12--0--9-8-------|
--0--0--9-0-12--0--9-0-12--0--9-8-0--0--|


  TP TP         TP         TP     PM PM  
  S  S  S S  E  S  S S  E  S  S S S  S   
----------------------------------------|
----------------------------------------|
----------------------------------------|
----------------------------------------|
--0--0--9-0-12--0--9-0-12--0--9-8-------|
--0--0--9-0-12--0--9-0-12--0--9-8-0--0--|


  TP TP         TP         TP     PM PM  
  S  S  S S  E  S  S S  E  S  S S S  S   
----------------------------------------|
----------------------------------------|
----------------------------------------|
----------------------------------------|
--0--0--9-0-12--0--9-0-12--0--9-8-------|
--0--0--9-0-12--0--9-0-12--0--9-8-0--0--|


  TP TP         TP         TP     PM PM                                   
  S  S  S S  E  S  S S  E  S  S S S  S     E  E  S S S S S S S S S S S S  
----------------------------------------|--------------------------------|
----------------------------------------|--------------------------------|
----------------------------------------|--------------------------------|
----------------------------------------|--------------------------------|
--0--0--9-0-12--0--9-0-12--0--9-8-------|--------------------------------|
--0--0--9-0-12--0--9-0-12--0--9-8-0--0--|--2--2--2-2-2-2-2-2-2-2-2-2-2-2-|


  S S S S S S S S S S S S S E.     S S S S S S S S S S S S S S S S  
--------------------------------|----------------------------------|
--------------------------------|----------------------------------|
--------------------------------|----------------------------------|
--------------------------------|--2-2-2-2-2-2-2-2-2-2-2-2-2-2-2-2-|
--------------------------------|--2-2-2-2-2-2-2-2-2-2-2-2-2-2-2-2-|
--2-2-2-2-2-2-2-2-2-2-2-2-2-----|--2-2-2-2-2-2-2-2-2-2-2-2-2-2-2-2-|


  S S S S S S S S S S S S S S S S    S S S S S S S S S S S S S S S S  
----------------------------------|----------------------------------|
----------------------------------|----------------------------------|
----------------------------------|----------------------------------|
--2-2-2-2-2-2-2-2-2-2-2-2-2-2-2-2-|--2-2-2-2-2-2-2-2-2-2-2-2-2-2-2-2-|
--2-2-2-2-2-2-2-2-2-2-2-2-2-2-2-2-|--2-2-2-2-2-2-2-2-2-2-2-2-2-2-2-2-|
--2-2-2-2-2-2-2-2-2-2-2-2-2-2-2-2-|--2-2-2-2-2-2-2-2-2-2-2-2-2-2-2-2-|


  S S S S S S S S S S S S S S S S     S  S  S  S S  E   E   E  E.   
----------------------------------|--------------------------------|
----------------------------------|--------------------------------|
----------------------------------|--------------------------------|
--2-2-2-2-2-2-2-2-2-2-2-2-2-2-2-2-|--------------------------------|
--2-2-2-2-2-2-2-2-2-2-2-2-2-2-2-2-|-------------------------2--2---|
--2-2-2-2-2-2-2-2-2-2-2-2-2-2-2-2-|--17-15-17\-L---12--14\--2--2---|


   S  S  S  S S  E   E   E  E.      S  S  S  S S  E   E   E  E.   
--------------------------------|--------------------------------|
--------------------------------|--------------------------------|
--------------------------------|--------------------------------|
--------------------------------|--------------------------------|
-------------------------3--3---|-------------------------2--2---|
--17-15-17\-L---12--15\--3--3---|--17-15-17\-L---12--14\--2--2---|


   S  S  S  S S  E   E   E  E.   
--------------------------------|
--------------------------------|
--------------------------------|
--------------------------------|
-------------------------3--3---|
--17-15-17\-L---12--15\--3--3---|


  Don't start song on measures 57 to the end                         
  E                                          E  E  S E  E  E  S S S  
--------------------------------------------------------------------|
--------------------------------------------------------------------|
-----------------------------------------------------4--7--3--3-3-3-|
-----------------------------------------------------4--7--3--3-3-3-|
-----------------------------------------------------2--5--1--1-1-1-|
--------------------------------------------------------------------|


  always start this part from 56                         
  E                              E  E  S E  E  E  S S S  
--------------------------------------------------------|
--------------------------------------------------------|
-----------------------------------------4--7--3--3-3-3-|
--2------------------------------2--0----4--7--3--3-3-3-|
--2------------------------------2--0----2--5--1--1-1-1-|
--2------------------------------2--0-------------------|


  or weird instrument change will occur                                      
  E.                                    E.  E     E  E  E  S E  E  E  S S S  
-----------------------------------------------|----------------------------|
-----------------------------------------------|----------------------------|
----------------------------------------3------|-------------4--7--3--3-3-3-|
--2-------------------------------------3---4--|--2--2--0----4--7--3--3-3-3-|
--2-------------------------------------1---4--|--2--2--0----2--5--1--1-1-1-|
--2-----------------------------------------4--|--2--2--0-------------------|


  E  E  E  S E  E  E  S S S    E  E  E  S E  E  E  S S S  
----------------------------|----------------------------|
----------------------------|----------------------------|
-------------4--7--3--3-3-3-|-------------4--7--3--3-3-3-|
--2--2--0----4--7--3--3-3-3-|--2--2--0----4--7--3--3-3-3-|
--2--2--0----2--5--1--1-1-1-|--2--2--0----2--5--1--1-1-1-|
--2--2--0-------------------|--2--2--0-------------------|


  E  E  E  S E  E  E  S S S    E.  E.  E     E  E  E  S E  E  E  S S S  
----------------------------|-------------|----------------------------|
----------------------------|-------------|----------------------------|
-------------4--7--3--3-3-3-|------3------|-------------4--7--3--3-3-3-|
--2--2--0----4--7--3--3-3-3-|--2---3---4--|--2--2--0----4--7--3--3-3-3-|
--2--2--0----2--5--1--1-1-1-|--2---1---4--|--2--2--0----2--5--1--1-1-1-|
--2--2--0-------------------|--2-------4--|--2--2--0-------------------|


  E.  E.  H        E     W                   W                  
----------------------|-------------------|-------------------||
----------------------|-------------------|-------------------||
------3---------------|-------------------|-------------------||
--2---3---4--------L--|--L----------------|--L----------------||
--2---1---4--------L--|--L----------------|--L----------------||
--2-------4--------L--|--L----------------|--L----------------||




Duration Legend
---------------
W - whole
H - half
Q - quarter
E - 8th
S - 16th
T - 32nd
X - 64th
. - note dotted
|-n-|  - n-tuplets


Tablature Legend
----------------
L - tied note
x - dead note
g - grace note
(n) - ghost note
> - accentuded note
NH - natural harmonic
AH - artificial harmonic
TH - tapped harmonic
SH - semi harmonic
PH - pitch harmonic
h - hammer on
p - pull off
b - bend
br - bendRelease
pb - preBend
pbr - preBendRelease
brb - bendReleaseBend
\n/ - tremolo bar dip
\n - tremolo bar dive
-/n - tremolo bar Release up
/n\ - tremolo bar inverted dip
/n - tremolo bar return
-\n - tremolo bar Release down
S - shift slide
s - legato slide
/ -  slide into from below or out of upwards
\ -  slide into from above or out of downwards
~ - vibrato
W - wide vibrato
tr - trill
TP - tremolo picking
T - tapping
S - slap
P - pop
< - fade in
^ - brush up
v - brush down
Добавлено: 09.09.2013
Другие материалы по этой песне:
  • Аккорды и текст

Страница создана 10.03.2012
http://primanota.ru/norma-jean/a-temperamental-widower-chords.htm
Привет, Гость.
Предлагаем пройти революционный курс по гитаре.
Подарок от PrimaNota.Ru, забирай!