PrimaNota.ru - самый крупный в мире бесплатный архив песенных текстов, аккордов, табулатур и нот


Norah Jones - Don't Know Why - аккорды и текст, таба, бас-таба, видео

Регистрация Запомнить меня
Войти через:  Facebook Google Twitter Vk Yandex Mail.ru

Norah Jones - Don't Know Why - аккорды и текст, таба, бас-таба, видео

Печатать
Просмотров: 831
Авторы музыки: Jesse Harris
Авторы текста: Jesse Harris
Don't Know Why
Norah Jones
                              Don't know why-Norah Jones

 THIS SONG IS IN STANDARD TUNING, AND IS VERY EASY TO PLAY! IF YOU HAVE ANY COMMENTS ON 
IF ITS RIGHT OR NOT, OR YOU SEE SOMETHING THAT JUST DOESN'T SEEM RIGHT,.....E-MAIL ME AT :
 MTSHELOR@HOTMAIL.COM

         ENJOY!   


    G7M             G7            C           B7           Em7         A7         D7sus4

 |----2-----   |--1-------   0----------   |-----2--   0---------   0-------   |-------3--   
 0----------   0----------   |--1-------   0--------   |------3--   |---2---   |--1-------
 0----------   0----------   0----------   |-----2--   0---------   0-------   |----2-----
 0----------   0----------   |----2-----   |--1-----   |---2-----   |---2---   0----------
 |----2-----   |----2-----   |-------3--   |-----2--   |---2-----   0-------   x----------
 |-------3--   |-------3--   x----------   x--------   0---------   x-------   x----------


    C7M           B+          D          G          D7       D5/C        G/B         D/A

 0---------  x---------  |---2-----  |-----3--  |-----2--  x--------  x--------   |--2-----
 0---------  0---------  |------3--  0--------  |--1-----  |-----3--  |-----3--   |-----3--
 0---------  0---------  |---2-----  0--------  |-----2--  |--2-----  0--------   |--2-----
 |---2-----  |---1-----  0---------  0--------  0--------  0--------  0--------   0--------
 |------3--  |------2--  x---------  |--2-----  x--------  |-----3--  |--2-----   0--------
 x---------  x---------  x---------  | ----3--  x--------  x--------  x--------   x--------


xxxxxxxxxxxxxxxxxxxxxxxxxxxxxxxxxxxxxxxxxxxxxxxxxxxxxxxxxxxxxxxxxxxxxxxxxxxxxxxxxxxxxxxxxxx

  INTRO

    G7M          G7         C           B7          Em7         A7         D7sus4
-----2---3--1-----3--------|--0---0----------------|-----------------------|------3-----------
-----0---------------3--0--|--1------4----0--4--3--|------3--2-------2--1--|---1--1-----------
-----0---------------------|-----------------------|---0----------0--------|---2--2-------0---
---------------------------|-----------------------|-----------------------|------------------
---------------------------|-----------------------|-----------------------|------------------
---------------------------|-----------------------|-----------------------|------------------



G7M                G7     C7M          B+  Em7                A7   'D7sus4          G

 I  wait - ed  til__   I  saw  the  sun.__ I  don't  know  why___ I  did - n't  come

G7M            G7         C7M            B+  Em7                A7    D7sus4         G

 I  left  you  by__  the  house  of  fun.    I  don't  know  why__   I did - n't come.  

   E7M               A7   D7sus4          G

 I   don't know  why_   I  did - n't  come.

G7M           G7       C7M            B+  Em7              A7            D7sus4      G

 When  I  saw___  the  break  of  day.    I  wished  that I____ could  fly___ a - way

G7M                G7       C7M         B+   Em7               A7          D7sus4         G

 'stead of  kneel  -  ing  in_ the  sand     cath - ing  tear   _   drops   in  my  hand._

    Em7                     A7               D              D7

 My heart  is___     drenced in_________    wine,

     Em7                   A7             D    D5/c        G/B        D/A

 but you'll    be___   on___    my_____  mind   for    -    ev    -    er.______

G7M          G7            C7M         B+   Em7             A7     D7sus4               G

 Out a  -  cross  the  end - less  sea,        I  would die____  in ec  -  sta  -  sy.

G7M          G7           C7M          B+    Em7                A7               D7sus4       G

 But I'll be_____  a  bag___  of  bones      driv  -  ing   down____  the  road___  a  -  lone.

Em7                       A7                  D               D7

 My heart___  is   drenched   in_________   wine,       

       Em7                    A7                  D              D7

 but   you'll    be___     on____    my______   mind   for   -   ev   -   er.______


  INTERLUDE




G7M                 G7     C7M               B+  Em7                  A7     D7sus4           G

 Some - thing  has__   to   make_  you  run.__   I   don't  know  why__   I   did  -  n't  come

   G7M            G7              C7M            B+

 I     feel  as  emp  -  ty    as____   a  drum

Em7               A7       D7sus4              G       Em7                 A7 

 I don't know why_____  I    did  -  n't  come,__  I     don't  know   why_____

   D7sus4                  G           Em7                 A7       D7sus4                 G

 I   did  -  n't   come.___   I__________   don't know why__     I   did  -  n't   come.____
Добавлено: 18.04.2012
Другие материалы по этой песне:

Страница создана 25.02.2012
http://primanota.ru/norah-jones/dont-know-why-chords.htm
Привет, Гость.
Предлагаем пройти революционный курс по гитаре.
Подарок от PrimaNota.Ru, забирай!