PrimaNota.ru - самый крупный в мире бесплатный архив песенных текстов, аккордов, табулатур и нот


Nora Jane Struthers - Listen With Your Heart - таба, видео

Регистрация Запомнить меня
Войти через:  Facebook Google Twitter Vk Yandex Mail.ru

Nora Jane Struthers - Listen With Your Heart - таба, видео

Печатать
Просмотров: 73
Авторы: Nora Jane Struthers

-------------------------------------------------------------------------------
                             Listen With Your Heart - Nora Jane Struthers
-------------------------------------------------------------------------------
Tabbed by: nvd88

This is a great song, pretty easy to play --- Enjoy!

Tuning: Standard

CAPO 2nd fret

-------------------------------------------------------------------------------

Intro

e|-----3*--------3-------3---------3------3----------3-----------------------|
B|-----3---------3-------3---------3------3----------3-----------------------|
G|-----0---------0-------0---------0------0----------0-----------------------|
D|---------0h2---------------0h2---------------0h2---------------------------|
A|---------------------------------------------------------------------------|
E|--3-----------------3----------------3------------------3------------------|

*Strum up and down once every time you play this chord in the song. Listen to
the song to get the rhythm down.

Verse

My daddy said his time is near the end...

e|-----3--------3------3--------3-------3--------3------3-------3--------------|
B|-----3--------3------3--------3-------3--------3------3-------3--------------|
G|-----0--------0------0--------0-------0--------0------0-------0--------------|
D|---------0h2-------------0h2--------------0h2------------0h2-----------------|
A|-----------------------------------3---------------3-------------------------|
E|--3---------------3----------------------------------------------------------|

So every mornin...
e|-----3---3-----3---3------3-------3----3-------------------------------------|
B|-----3---3-----3---3------3-------3----3-------------------------------------|
G|-----0---0-----0---0------0-------0----0-------------------------------------|
D|--0---------0----------------0h2----------0h2--------------------------------|
A|-----------------------3-------------3---------------------------------------|
E|-----------------------------------------------------------------------------|

Chorus

He says darlin'...
and
There's nothin' the forest doesn't give
e|------3-----3-----3-----3----3-----3------3-----3----------------------------|
B|------3-----3-----3-----3----3-----3------3-----3----------------------------|
G|------0-----0-----0-----0----0-----0------0-----0----------------------------|
D|-----------------------------------------------------------------------------|
A|-----------------------------------------------------------------------------|
E|---0-----0-----0-----0-2---3----3------3-----3-------------------------------|

From the bounty of the land...
e|------3------3------3-----3-----3-----3-----3----3---------------------------|
B|------3------3------3-----3-----3-----3-----3----3---------------------------|
G|------0------0------0-----0-----0-----0-----0----0---------------------------|
D|-----------------------------------------------------------------------------|
A|---3------3------------------3-----3-----------------------------------------|
E|-----------------3-----3-----------------3----2------------------------------|

If you listen with your heart
e|------3-----3------3----3------3-----3-----3-----3-------3-----3-------3-----3---|
B|------3-----3------3----3------3-----3-----3-----3-------3-----3-------3-----3---|
G|------0-----0------0----0------0-----0-----0-----0-------0-----0-------0-----0---|
D|---------------------------------------------------------------------------------|
A|---3-----3------------------3-----3-------------------3-----3--------------------|
E|----------------3----3------------------3-----3---------------------3-----3------|

You hear the rhythm of the land
e|-----3-------3-----2-----2-----3-------3-----3-------3------3-------3------------|
B|-----3-------3-----3-----3-----3-------3-----3-------3------3-------3------------|
G|-----2-------2-----2-----2-----0-------0-----0-------0------0-------0------------|
D|----------------------------------0h2-----------0h2------------0h2---------------|
A|---------------------------------------------------------------------------------|
E|---2-----2------2-----2-----3-------------3--------------3--------------3--------|


To change it up, strum alternate verses and choruses

The chord pattern for the verses is: G, Cadd9, D(with low E 3rd fret), Cadd9 repeated

The chord pattern for the chorus is: Em7, G, Cadd9, G, Cadd9, G, Dchord (with low E 3rd fret)

The bridge (or solo) is just Em7, G, Cadd9, and D(with low E 3rd fret)chords repeated.

Lyrics:

My daddy said his time is near the end
with Momma gone there's just one thing to do
So every mornin' we set out from home
Ruffles, knots, satchels, and good boots

He says, "Darlin', its time you learned to live
from the bounty of the land
by the strength of your own hand.
There is nothing the forest doesn't give
if you listen with your heart,
if you listen with your heart,
if you listen with your heart,
you'll hear the rhythm of the land.

Like a newborn faun at first I was afraid
The sparrows' song gave me a start
slowly I learned each creatures melody
Dad said I learned to listen with my heart.

He says, "Darlin', you're learnin to live
from the bounty of the land,
by the strength of your own hand.
There's nothing the forest doesn't give
if you listen with your heart,
if you listen with your heart,
if you listen with your heart,
you'll hear the rhythm of the land.

As I gather amps and dandelion greens,
Pluck a few wild flowers for his grave,
Check my traps and lines in the stream,
Hear my Daddy singin' out his praise,

He says, "Darlin', you have leared to live
from the bounty of the land,
by the strength of your own hand.
There's nothing the forest doesn't give
if you listen with your heart x6
when you listen with your heart
you are the rhythm of the land.
Добавлено: 24.09.2015
Другие материалы по этой песне:
  • Аккорды и текст

Страница создана 24.09.2015
http://primanota.ru/nora-jane-struthers/listen-with-your-heart-chords.htm
Привет, Гость.
Предлагаем пройти революционный курс по гитаре.
Подарок от PrimaNota.Ru, забирай!