PrimaNota.ru - самый крупный в мире бесплатный архив песенных текстов, аккордов, табулатур и нот


Noothgrush - Gage - таба, видео

Регистрация Запомнить меня
Войти через:  Facebook Google Twitter Vk Yandex Mail.ru

Noothgrush - Gage - таба, видео

Печатать
Просмотров: 71
They reunited and are currently signed to Fuck Yoga Records.
http://noothgrush.bandcamp.com/
https://www.facebook.com/noothgrushband

Tuning (B Gb B E Ab Db) 1 1/2 steps down and drop B

Riff 1 - tapping!

|------------------------------------------|
|------------------------------------------|
|------------------2-----------------------|
|----7-7--7---7-6--2-----------------------|
|-0--5-5--5---5-4--0--0^4^0^4^0^4^0^4^0----|
|-0----------------------------------------|

Riff 2 - palm mutes

|----------------------------------|
|----------------------------------|
|----------------------------------|
|-0--1--3--1--4-3--3---------------|
|-0--1--3--1--4-3--3---------------|
|-0--1--3--1--4-3--3--1-3-1-1-3----|
                      . . . . 

Riff 3
|----------------------------|
|----------------------------|
|------------3---------------|
|-0---1---0--3--4------------|
|-0---1---0--1--4-1-3-3-1----|
|-0---1---0-----4-1-3-3-1----|

Yep... that's the whole song. Pretty smashing tune though.
Добавлено: 27.07.2015
Вам также может быть интересно:
Другие материалы по этой песне:
  • Аккорды и текст

Страница создана 27.07.2015
http://primanota.ru/noothgrush/gage-chords.htm
Привет, Гость.
Предлагаем пройти революционный курс по гитаре.
Подарок от PrimaNota.Ru, забирай!