PrimaNota.ru - самый крупный в мире бесплатный архив песенных текстов, аккордов, табулатур и нот


Noori - Pinjra - таба, видео

Регистрация Запомнить меня
Войти через:  Facebook Google Twitter Vk Yandex Mail.ru

Noori - Pinjra - таба, видео

Печатать
Просмотров: 30
Уроки эстрадного вокала в Санкт-Петербурге
Amazing song from noori's new album, BGBS

e|---------------------------------------------------------------------------|
B|--3s5s7-3s5s7--3s5s3-------------------------------------------------------|x4
G|---------------------------------------------------------------------------|
D|---------------------------------------------------------------------------|
A|---------------------------------------------------------------------------|
E|---------------------------------------------------------------------------|

e|---------------------------------------------------------------------------|
B|--7-8-7-5-7-5-7-5----------------------------------------------------------|x2
G|---------------------------------------------------------------------------|
D|---------------------------------------------------------------------------|
A|---------------------------------------------------------------------------|
E|---------------------------------------------------------------------------|

e|---------------------------------------------------------------------------|
B|---------------------------------------------------------------------------|
G|---7-5s7-5s4-5-4-2---9-9s11-7-9-7------------------------------------------|
D|--0-----------------2------------------------------------------------------|
A|---------------------------------------------------------------------------|
E|---------------------------------------------------------------------------|

e|-------------------3-2-3-2-0-0h2-------------------------------------------|
B|---------------------------------------------------------------------------|
G|-----7-5-7-5s4-2-----------------------------------------------------------|
D|--0-0----------------------------------------------------------------------|
A|---------------------------------------------------------------------------|
E|---------------------------------------------------------------------------|

e|---------------------------------------------------------------------------|
B|-----------------------------8-5-3-2-0-2s3-3-------------------------------|
G|--7p6-4s6s7-9h10-7-9-6-7--7-7----------------------------------------------|
D|---------------------------------------------------------------------------|
A|---------------------------------------------------------------------------|
E|---------------------------------------------------------------------------|


Tabbed by Insha ur Rehman
www.superinsha.webs.com
************************************

| h  Hammer-on
| p  Pull-off
| s  Slide

************************************
Добавлено: 24.10.2017
Другие материалы по этой песне:
  • Аккорды и текст

Страница создана 24.10.2017
http://primanota.ru/noori/pinjra-chords.htm
Привет, Гость.
Предлагаем пройти революционный курс по гитаре.
Подарок от PrimaNota.Ru, забирай!