PrimaNota.ru - самый крупный в мире бесплатный архив песенных текстов, аккордов, табулатур и нот


Noori - Neend Ayay Na - таба, видео

Регистрация Запомнить меня
Войти через:  Facebook Google Twitter Vk Yandex Mail.ru

Noori - Neend Ayay Na - таба, видео

Печатать
Просмотров: 114
[CHORDS]

Am [x02210]
F  [133211]
G  [355433]
B  [x244xx]
C  [x32010]

[2m = mute 2nd note with right hand]

[INTRO 1 IS EASY TO PLAY THOUGH HARD TO TAB, HERE'S THE
IDEA, TRY FIGURING OUT A BIT. IT HAS SOME MUTED NOTES
BETWEEN EACH NOTE I HAVE MENTIONED BELOW]

[INTRO 1]
------------------------------------|
------------------------------------|
--2m----2m--2m----------------5-----|
----------------5m--3m--3m-------3--|
------------------------------------|
------------------------------------|
------------------------------------|
----------------------------3-------|
------------------------------------|
--5m---5m--5m--3m---5m-5m------5----|
------------------------------------|
------------------------------------|

[LEAD GUITAR WITH INTRO 1 2x]
----------3-------------------------|
------------3---1p3--3--------------|
-------2----------------------------|
------------------------------------|
--0---------------------------------|
------------------------------------|

----------3-------------------------|
------------3-----------------------|
-------2-------1p3--1---------------|
------------------------------------|
-0----------------------------------|
------------------------------------|

[STENZA 1]
Am
Yeh dil ab maney na,

F
Inn raahon ko jaaney na,

Am                           F
Bhooli huii in baton main,jeevan ko pehchaney na,

Am               B               F
Jagay hain merey mann main kayee armaan

G
Dhoond na payay,

Am                       B                  F
Khushion key rangon main gham bhi hain meri jaan,

G    G   G G
Dhoonday kahan

[CHORUS]

Am               F
Yaara neend ayay na,

               C          G
Yeh dil kaheen toot jayay na,

Am                 F
Yara ab neend ayay na,

              C           G
Keh hum kahin bhool jayay na,

        Am
Sun ley sada,

       F
Ai' khuda,

     C      G
Mera dil ab tanha ro' ay,

Am
Han!

[STENZA 2]
Yeh dil ab dhoonday na,
Pinhaan hain lub bolein na,
Jo wa' dey tootay hain,
Unn waa' don ko bhulay na,
Apni zameen main kho' ey huay hain jahan,
Dhoond na payay,
Munn ki muraadon main
Doobay huay hum kahan,
Dhoondein kahaan?
Bholo ye na

[REPEAT CHORUS]

[SOLO]
--------------------------------------------- |
--------------------------------------------- |
----------------------------------------------|
--------------------------------------------- |
-----5/7---7----7/8--7---5\3--3~~---5/7--5----|
--------------------------------------------- |

--------------------------------------------- |
---------------------------------------- 13/15|~~
--9--10--9~~---12--14--12/14~~---12--14-------|
--------------------------------------------- |
--------------------------------------------- |
--------------------------------------------- |

--------------------------------------------- |
---15--13--15~~^17--15^17--17^15--13----------|
--------------------------------------14~~----|
--------------------------------------------- |
--------------------------------------------- |
--------------------------------------------- |

[REPEAT CHORUS]
Добавлено: 30.05.2012
Другие материалы по этой песне:
  • Аккорды и текст

Страница создана 30.05.2012
http://primanota.ru/noori/neend-ayay-na-chords.htm
Привет, Гость.
Предлагаем пройти революционный курс по гитаре.
Подарок от PrimaNota.Ru, забирай!