PrimaNota.ru - самый крупный в мире бесплатный архив песенных текстов, аккордов, табулатур и нот


Noonie Bao - About To Tell - аккорды и текст, видео

Регистрация Запомнить меня
Войти через:  Facebook Google Twitter Vk Yandex Mail.ru

Noonie Bao - About To Tell - аккорды и текст, видео

Печатать
Просмотров: 48
About To Tell
Noonie Bao
-------------------------------------------------------------------------------
                            ABOUT TO TELL - Noonie Bao
-------------------------------------------------------------------------------
Tabbed by:ndermawan
E-mail:ndermawan@yahoo.com

   Tuning: Standard + Capo 1

Reference: https://soundcloud.com/nooniebao/about-to-tell-acoustic-live

    Links: https://www.facebook.com/nooniebao
           http://nooniebao.com/


Been hooked on Noonie Bao's music since I heard her on AVICII's "I could be the one" 
Looking forward to more stuff from her! Hope this tab helps.

I've tabbed this according to the acoustic version linked above, just because
it was easier for me to clearly hear what chords are used. 
Should still be applicable to the original/normal version.


All chords relative to capo



Chords Used
-----------
   Am   F   Am/G
e|----------------|
B|--1---1---1-----|
G|--2---2---0-----|  I'm not 100% sure about the Am/G
D|--2---3---------|  If anyone has any alternative suggestions
A|--0---3---------|  You're welcome to comment!
E|------1---3-----|



Detailed soundings:
==============================================================================

Intro        Verse 1+2
-----------------------
    Am  Am    Am  Am/G   F            Alternate sounding Am & Am/G

e|--5----5--|--5----5----5----|              e|--8--8--|
B|--5----5--|--5----5----6----|              B|--5--5--|
G|--5----5--|--5----5----5----|              G|--5--5--|
D|--7----7--|--7----5---------|              D|--7--5--|
A|----------|------------8----|              A|--------|
E|----------|-----------------| X3           E|--------|

Chorus 1
--------
  Pt1. - go to Pt.2 after X4              Pt.2
    F        Am/G        Am

e|--5---5-----8---8------10--10--10--10---|--10--10--10--10---|
B|----------------------------------------|-------------------|
G|----5---5-----5---5------7---7---7---7--|----7---7---7---7--|
D|--3---------5----------7-------7--------|-------------------|
A|----------------------------------------|-------------------|
E|-------------------------------------X4-|-------------------|

Chorus 2 around 1:50
--------------------
    F         Am/G    Am          Am 
Добавлено: 02.12.2015
Другие материалы по этой песне:
  • Аккорды и текст

Страница создана 02.12.2015
http://primanota.ru/noonie-bao/about-to-tell-chords.htm
Привет, Гость.
Предлагаем пройти революционный курс по гитаре.
Подарок от PrimaNota.Ru, забирай!