PrimaNota.ru - самый крупный в мире бесплатный архив песенных текстов, аккордов, табулатур и нот


Nonpoint - Your Signs - текст песни, таба, видео

Регистрация Запомнить меня
Войти через:  Facebook Google Twitter Vk Yandex Mail.ru

Nonpoint - Your Signs - текст песни, таба, видео

Печатать
Просмотров: 333
Band- Nonpoint
Song- Your Signs

Drop-D. tuned down a whole step

Intro/Chorus
E----------------10////---|
B-------------------------|
G---------10////----------|
D-12/////-----------------|
A-------------------------|
D-------------------------|
with chorus

E-------------------------|
B--------------10///------|
G-77999h10////-------777--|
D-------------------------|
A-------------------------|
D-------------------------|


Verse
E----------------------------------------------|
B----------------------------------------------|
G----------------------------------------------|
D-35----------------------55-----4----3--------|From here on ouy there is distortion
A-35------888----55-------33-----2----1--------|
D-35-0000-----00---57-000----000---00----------|
     p.m.     p.m........    ...   ..

Pre-Chorus
E-----------------------------|
B-----------------------------|
G-----------------------------|
D--------------55-----4----3--|
A----55--------33-----2----1--|
D-00----57-000----000---00----|

Chorus
E------------------------------------------------------|
B---3-3-3-3h5-5-5/6-6-66-6666-6------------------------|
G---2-2-2-2-2-2-2/3-3-33-3333-5-55/7-7-55/7---7-33h5\3-|
D-0-----------------------------33/5-5-33/5-0-5----3\1-|
A-0-----------------------------33/5-5-33/5-0-5----3\1-|
D-0-----------------------------------------0----------|


Verse 2
E--------------------------|
B--------------------------|
G--------------------------|
D-------3333333-5----------|
A----55-3333333-5----8888--|
D-00----3333333-5-00-------|
 p.m................


Bridge
E----------------------------------------------|
B----------------------------------------------|
G----------------------------------------------|
D-00-00-00-000-----------0-00-00-000-----------|
A-00-00-00-000-8-0-3-0-6-0-00-00-000-1-0-3-0-6-|
D-00-00-00-000-----------0-00-00-000-----------|

E-------------------------------------------|
B-------------------------------------------|
G-------------------------------------------|
D-------------------------------------------|
A-6-5-0-6-5-0-6-5-0-6-5-0-8-0-3-0-6-5-0-----|
D-------------------------------------------|

E-------------------------|
B-------------------------|
G-------------------------|
D-00-00-00-00-00----------|
A-00-00-00-00-00----------|
D-00-00-00-00-00-18\0-----|


End of chorus 1 and last chorus, ending
E----------------------------------------|
B-33-33-33-33-55-55-55-55-66-66-66-666---|
G-22-22-22-22-44-44-44-44-55-55-55-555---|
D-00-00-00-00-00-00-00-00-00-00-00-000---|
A-00-00-00-00-00-00-00-00-00-00-00-000---|
D-00-00-00-00-00-00-00-00-00-00-00-000---|

E--------------|
B-7---7---7----|
G--------------|
D-5-0-5-0-5-0--|
A---0---0---0--|
D---0---0---0--|
Добавлено: 06.06.2012
Другие материалы по этой песне:
  • Аккорды и текст

Страница создана 13.03.2012
http://primanota.ru/nonpoint/your-signs-chords.htm
Привет, Гость.
Предлагаем пройти революционный курс по гитаре.
Подарок от PrimaNota.Ru, забирай!