PrimaNota.ru - самый крупный в мире бесплатный архив песенных текстов, аккордов, табулатур и нот


Nonpoint - The Way I See Things - таба, видео

Регистрация Запомнить меня
Войти через:  Facebook Google Twitter Vk Yandex Mail.ru

Nonpoint - The Way I See Things - таба, видео

Печатать
Просмотров: 171
Уроки эстрадного вокала в Санкт-Петербурге
Nonpoint: The Way I See Things

Transcribed by: mysticguitar77

YouTube Username: MysticGuitar77

Date last modified: October 15, 2012

Tuning: Drop C (C,G,C,F,A,D)

Riff 1 - Guitar 1
D|---------------------------------------------------|
A|---------------------------------------------------|
F|---------------------------------------------------|
C|-2h3p2p0-2-0-0-7-0-0-7-8-0-5-0-0-5-7-0-3-0-0-3-5-0-|
G|---------------------------------------------------|
C|---------------------------------------------------|

D|---------------------------------------------------|
A|---------------------------------------------------|
F|---------------------------------------------------|
C|-2h3p2p0-2-0-0-------------3-0-0-3-5-0-2-0-0-2-3-0-|
G|---------------3-0-0-3-5-0-------------------------|
C|---------------------------------------------------|

Play Riff 1 (Guitar 1) x2

Riff 1 - Guitar 2 (comes in after Guitar 1 plays above once)
D|---------------------------|
A|---------------------------|
F|---------------------------|
C|-0~------------------5---7-|
G|-0~------------------5---7-|
C|-0~------------------5---7-|

Riff 2   "Do I have to remind you..."
D|------------------------------------------|
A|------------------------------------------|
F|-------------------------3-3-3-3----------|
C|-------------------------3-3-3-3--3-3-3-3-|
G|-------------------------1-1-1-1--3-3-3-3-|
C|-0-0-0-0-0-0-3-0-0-3-2-0----------3-3-3-3-|
   * * * * * *

D|--------------------------------------------|
A|--------------------------------------------|
F|--------------------------------------------|
C|---------------------------1-1-1-1--8-8-8-8-|
G|---------------------------1-1-1-1--8-8-8-8-|
C|-5-5-5-5-5-5-7-5-5-7h8p7p5-1-1-1-1--8-8-8-8-|
   * * * * * *

Play Riff 2 x4   "Trying to find your heart in your chest..."

Riff 3   "Would you make this impossible..."
D|-------------------------------------------------------|
A|-------------------------------------------------------|
F|-------------------------------------------------------|
C|-8-8-8-8-8-8-7-7-7-7-7-7-10-10-10-10-10-10-7-7-7-7-7-7-|
G|-------------------------------------------------------|
C|-------------------------------------------------------|

D|-----------------------------------------------------|
A|-----------------------------------------------------|
F|-------------------------10-10-10-10-10-10-9-9-9-9ph-|
C|-8-8-8-8-8-8-7-7-7-7-7-7-----------------------------|
G|-----------------------------------------------------|
C|-----------------------------------------------------|

D|-------------------------------------------------------|
A|-------------------------------------------------------|
F|-------------------------------------------------------|
C|-8-8-8-8-8-8-7-7-7-7-7-7-10-10-10-10-10-10-7-7-7-7-7-7-|
G|-------------------------------------------------------|
C|-------------------------------------------------------|

D|---------------------------------------------|
A|---------------------------------------------|
F|---------------------------------------------|
C|-8-8-8-8-8-8-7-7-7-7-7-7-1-1-1-1--1-1-1-1--1-|
G|-------------------------1-1-1-1--1-1-1-1--1-|
C|-------------------------1-1-1-1--1-1-1-1--1-|

Riff 4   "The way I see things..."
D|---------------------------------------------|
A|-3---3--3-3----------------------------------|
F|-2---2--2-2-3---3--3---5---5--5---5---5--5---|
C|-0---0--0-0-3---3--3---3---3--3---5---5--5---|
G|-0---0--0-0-1---1--1---3---3--3---3---3--3---|
C|-0---0--0-0----------0-3---3--3-0----------0-|

D|------------------------------------------------|
A|-3---3--3-3-------------------------------------|
F|-2---2--2-2-3---3--3---5---5--5---5--5--5-5-----|
C|-0---0--0-0-3---3--3---3---3--3---5--5--5-5-3-1-|
G|-0---0--0-0-1---1--1---3---3--3---3--3--3-3-3-1-|
C|-0---0--0-0----------0-3---3--3-0-----------3-1-|
                                              * *

D|------------------------------------------------|
A|-3---3--3-3-------------------------------------|
F|-2---2--2-2-3---3--3---5---5--5---5--5--5-5-5-5-|
C|-0---0--0-0-3---3--3---3---3--3---5--5--5-5-5-5-|
G|-0---0--0-0-1---1--1---3---3--3---3--3--3-3-3-3-|
C|-0---0--0-0----------0-3---3--3-0---------------|

Riff 4 ending (1st time)
D|--------------------------------------------------------|
A|-3---3--3-3---------------------------------------------|
F|-2---2--2-2-3---3--3---7-7-7-7--7-7-7--7-7-7-7----------|
C|-0---0--0-0-3---3--3---5-5-5-5--5-5-5--5-5-5-5--1--1--1-|
G|-0---0--0-0-1---1--1---3-3-3-3--3-3-3--3-3-3-3--1--1--1-|
C|-0---0--0-0----------0--------------------------1--1--1-|
                                                  *  *  *

Fill
D|-------------------------|
A|-------------------------|
F|-------------------------|
C|-2h3p2p0-2-0-0-----------|
G|---------------3-0-0-3/5-|
C|-------------------------|

Play Riff 2 x4   "Shouldn't have to remind you..."
Play Riff 3 x1   "But, you make this impossible..."
Play Riff 4 x1   "The way I see things..."

Riff 4 ending (2nd time)
D|-----------------------------------------------------|
A|-3---3--3-3------------------------------------------|
F|-2---2--2-2-3---3--3---9-9-9-9--------9-9-9-9--------|
C|-0---0--0-0-3---3--3---7-7-7-7--------7-7-7-7--------|
G|-0---0--0-0-1---1--1---5-5-5-5--------5-5-5-5--------|
C|-0---0--0-0----------0----------0-0-0----------0-0-0-|

Riff 5   "...better off if I leave!"
D|-------------------------------------------------|
A|-------------------------------------------------|
F|-------------------------------------------------|
C|-------------------------------------------------|
G|-------------------------------------------------|
C|-0-0-0-0-0-0-1p0-0-0-0-0-0-0-0-0-0-0-1p0-0-3p1-0-|
   * * * * * *     * * * * * * * * * *

D|-------------------------------------------------|
A|-------------------------------------------------|
F|-------------------------------------------------|
C|-------------------------------------------------|
G|-------------------------------------------1h3-3-|
C|-0-0-0-0-0-0-1p0-0-0-0-0-0h1-1-3p1-0-1p0-0-------|
   * * * * * *     * * * *

Play Riff 5 x4

Riff 3 alteration
D|-------------------------------------------------------|
A|-------------------------------------------------------|
F|-------------------------------------------------------|
C|-8-8-8-8-8-8-7-7-7-7-7-7-10-10-10-10-10-10-7-7-7-7-7-7-|
G|-------------------------------------------------------|
C|-------------------------------------------------------|

D|---------------------------------------------|
A|---------------------------------------------|
F|---------------------------------------------|
C|-8-8-8-8-8-8-7-7-7-7-7-7-1-1-1-1--1-1-1-1--1-|
G|-------------------------1-1-1-1--1-1-1-1--1-|
C|-------------------------1-1-1-1--1-1-1-1--1-|

Play Riff 4 x1   "The way I see things..."

Riff 4 ending (3rd time)   "I'll be better off if I leave!"
D|------------------------------------|
A|------------------------------------|
F|-3--3-3--3-3--3-3--3/5--5-5--5------|
C|-3--3-3--3-3--3-3--3/5--5-5--5-1--1-|
G|-1--1-1--1-1--1-1--1/3--3-3--3-1--1-|
C|-------------------------------1--1-|

Riff 6 (ending)
D|---------------------------------------------------|
A|-9-9-9-9--9-9-9-9-9-9-9-9-9-9--9-9-9-9-9-9-9-9-9-9-|
F|-8-8-8-8--8-8-8-8-8-8-8-8-8-8--8-8-8-8-8-8-8-8-8-8-|
C|-6-6-6-6--6-6-6-6-6-6-6-6-6-6--6-6-6-6-6-6-6-6-6-6-|
G|---------------------------------------------------|
C|---------------------------------------------------|

D|------------------------------------|
A|-9-9-9-9-9-9------------------------|
F|-8-8-8-8-8-8---------------3--------|
C|-6-6-6-6-6-6-2h3p2p0-2-0-0-3-3-2-1~-|
G|---------------------------1-3-2-1~-|
C|-----------------------------3-2-1~-|
                               * * *

Enjoy!

Добавлено: 21.10.2013
Другие материалы по этой песне:
  • Аккорды и текст

Страница создана 21.10.2013
http://primanota.ru/nonpoint/the-way-i-see-things-chords.htm
Привет, Гость.
Предлагаем пройти революционный курс по гитаре.
Подарок от PrimaNota.Ru, забирай!