PrimaNota.ru - самый крупный в мире бесплатный архив песенных текстов, аккордов, табулатур и нот


Nonpoint - The Same - текст песни, таба, драм-таба, видео

Регистрация Запомнить меня
Войти через:  Facebook Google Twitter Vk Yandex Mail.ru

Nonpoint - The Same - текст песни, таба, драм-таба, видео

Печатать
Просмотров: 133
Nonpoint: The Same

Transcribed by: Andrew Zara (disturbedfreak0520@yahoo.com)
                         
YouTube Account: MysticGuitar77

Date last modified: September 18, 2009

Tuning: Drop C (C,G,C,F,A,D)

Key: h = hammer-on
     p = pull-off
     * = palm-mute
     ph= pinch harmonic
     / = slide up
     \ = slide down
     ~ = let ring
     b = full bend (unless otherwise noted)

Riff 1   “Things haven't changed, you haven't changed…”
D|--------------------------------------------------|
A|--------------------------------------------------|
F|--------------------------------------------------|
C|-777777779999101010101010101010101010\33333333/88-|
G|-7777777777777-7-7-7-1010101010101010\33333333/88-|
C|-7777777777777-7-7-7-1010101010101010\33333333/88-|

Riff 2
D|-----------------------------------------------------------|
A|-----------------------------------------------------------|
F|-----------------------------------------------------------|
C|-0--0-0-3-0--0--0--0--666-666-0--0-0-3-0--0--0--0--111-111-|
G|-0--0-0-3-0--0--0--0--666-666-0--0-0-3-0--0--0--0--111-111-|
C|-0--0-0-3-0--0--0--0--666-666-0--0-0-3-0--0--0--0--111-111-|
                        *** ***                      *** ***

D|--------------------------------------------------------------|
A|--------------------------------------------------------------|
F|---------------------7ph--------------------------------------|
C|-0--0-0-3-0--0--0--0-----10ph-8ph-0--0-0-3-0--0--0--0-111-111-|
G|-0--0-0-3-0--0--0--0--------------0--0-0-3-0--0--0--0-111-111-|
C|-0--0-0-3-0--0--0--0--------------0--0-0-3-0--0--0--0-111-111-|
                                                        *** ***

Play Riff 1

Play Riff 2

Riff 3 – Same as Riff 1 except slower tempo.

Riff 4
D|----------------------------------------------|
A|----------------------------------------------|
F|-5/7b---5/7b---5/7b---5/7b--------------------|
C|-x-x--0-x-x--0-x-x--0-x-x--0--0-3-3-3-0-6-6-6-|
G|-3/5b-0—3/5b-0-3/5b-0-3/5b-0--0-3-3-3-0-6-6-6-|
C|------0------0------0------0--0-3-3-3-0-6-6-6-|

Riff 5   “You're just the same! You're just the same!”
D|-----------------------------------------------|
A|-----------------------------------------------|
F|-7b-------7b-------7b-------7b-----------------|
C|-x--0-0-0-x--0-0-0-x--0-0-0-x--0-3-3-3-0-6-6-6-|
G|-5b-0-0-0-5b-0-0-0-5b-0-0-0-5b-0-3-3-3-0-6-6-6-|
C|----0-0-0----0-0-0----0-0-0----0-3-3-3-0-6-6-6-|

Riff 6 w/ wah

D|-------------------------|
A|-------------------------|
F|-------------------------|
C|-0--011110-0--0--111-111-|
G|-0--011110-0--0--111-111-|
C|-0--011110-0--0--111-111-|

Play Riff 1

Play Riff 3

Play Riff 4

Play Riff 5

End on:

D|--------|
A|--------|
F|--------|
C|-0~-----|
G|-0~-----|
C|-0~-----|
Добавлено: 28.05.2012
Другие материалы по этой песне:
  • Аккорды и текст

Страница создана 28.05.2012
http://primanota.ru/nonpoint/the-same-chords.htm
Привет, Гость.
Предлагаем пройти революционный курс по гитаре.
Подарок от PrimaNota.Ru, забирай!