PrimaNota.ru - самый крупный в мире бесплатный архив песенных текстов, аккордов, табулатур и нот


Nonpoint - Skin - текст песни, таба, видео

Регистрация Запомнить меня
Войти через:  Facebook Google Twitter Vk Yandex Mail.ru

Nonpoint - Skin - текст песни, таба, видео

Печатать
Просмотров: 131
Nonpoint: Skin

Transcribed by: mysticguitar77

YouTube Username: MysticGuitar77

Date last modified: July 18, 2013

Tuning: Drop A# (A#,F,A#,D#,G,C)

Riff 1
 C|-------------------------|
 G|-------------------------|
D#|-3-----------------------|
A#|-x-3-0-3-5-0-2-2-0-2-2-0-|   x3
 F|-1-3-0-3-5-0-2-2-0-2-2-0-|
A#|---3-0-3-5-0-2-2-0-2-2-0-|

 C|-------------|
 G|-------------|
D#|-3-3-3-5-5-5-|
A#|-x-x-x-x-x-x-|
 F|-1-1-1-3-3-3-|
A#|-------------|

Riff 2   "You're barely getting by..."
 C|--------------------------------------|
 G|--------------------------------------|
D#|-5-/-7--------------------------------|
A#|-x---x--------------------3h5p3p0-----|
 F|-3-/-5----------------------------6ph-|
A#|-------0--0-0-0-0-0-0-0-0-------------|
               * * * *

 C|---------------------------------------------|
 G|---------------------------------------------|
D#|-5-/-7--------------10-10-10-----------------|
A#|-x---x--------------x--x--x--5h7p5p0-3h5p3p0-|
 F|-3-/-5--------------8--8--8------------------|
A#|-------0--0-0-0-0-0--------------------------|
               * * * *

 C|--------------------------------------|
 G|--------------------------------------|
D#|-5-/-7--------------------------------|
A#|-x---x--------------------------------|
 F|-3-/-5--------------------3h5p3p0-6ph-|
A#|-------0--0-0-0-0-0-0-0-0-------------|
               * * * *

 C|------------------------------------------|
 G|------------------------------------------|
D#|-5-/-7--------------7-7-7-----------------|
A#|-x---x--------------5-5-5-5h7p5p0-3h5p3p0-|
 F|-3-/-5--------------3-3-3-----------------|
A#|-------0--0-0-0-0-0-----------------------|
               * * * *

Riff 2 note: The first note of the pull-off sequence of notes have slight
             pinch harmonics on them.

Play Riff 2 x1.5

Fill 1
 C|-------------------------------------------------|
 G|-------------------------------------------------|
D#|-3-----------------------3-----------3-3-3-5-5-5-|
A#|-x-3-0-3-5-0-2-2-0-2-2-0-x-3-0-3-5-0-x-x-x-x-x-x-|
 F|-1-3-0-3-5-0-2-2-0-2-2-0-1-3-0-3-5-0-1-1-1-3-3-3-|
A#|---3-0-3-5-0-2-2-0-2-2-0---3-0-3-5-0-------------|

Play Riff 2 x1   "Then I have to take a breath..."

Riff 3   "And that might be what I want to do..."
 C|--------------|
 G|--------------|
D#|-3------------|
A#|-x-3-0-3-5-2~-|
 F|-1-3-0-3-5-2~-|
A#|---3-0-3-5-2~-|

Play Riff 3 x2   "And that might be what I want to do..."

Riff 4   "Take you..."
 C|--------------------------|
 G|--------------------------|
D#|--------10~-----------12~-|
A#|--------x-------------x---|
 F|-0-0--0-8~~----0-0--0-10~-|
A#|-0-0--0--------0-0--0-----|
    * *  *        * *  *

Play Riff 4 x2   "Try to shake you..."

Riff 5   "Break you out of your habits..."
 C|----------------------------------------|
 G|------------------------------------11~-|
D#|---------------3~-------------------x---|
A#|--------7~--7~----7~--------8~~--8~-8~~-|
 F|-0-0--0-8~-----------0-0--0-10~---------|
A#|-0-0--0--------------0-0--0-------------|
    * *  *              * *  *
                     ^ ends here 2nd time through

Play Riff 5 x2   "Can you feel me?"

Fill 2   "Can you look inside and see past the skin this time..."
 C|-------------------------------|
 G|-------------------------------|
D#|-------------------------------|
A#|-------------------------10----|
 F|-/10-8-8-10-8-8-/12-10-7----7\-|
A#|-------------------------------|

Play Riff 2 x1.5
Play Fill 1 x1
Play Riff 2 x1   "Tell wild stories of our glory days..."
Play Riff 3 x2   "Because you know how the world treats your kind..."
Play Riff 4 x2   "Take you..."
Play Riff 5 x2   "Can you feel me?"
Play Fill 2 x1   "Can you look inside and see past the skin this time..."

Riff 6
 C|------------------|
 G|------------------|
D#|------------------|
A#|------------------|
 F|------------------|
A#|-0-0-0--0-0-0-0-0-|
             * * * *

Play Riff 6 x4

Fill 3
 C|------------------|
 G|-9----------------|
D#|-7----------------|
A#|-6----------------|
 F|------------------|
A#|---0-0--0-0-0-0-0-|
             * * * *

Play Riff 6 x3

Riff 7   "Your time is running out to make a choice..."
 C|--------------------------------------|
 G|--------------------------------------|
D#|-14-14-14--14-14---12-12-14\-10-10-10-|
A#|-x--x--x---x--x----14-14-15\-12-12-12-|
 F|-12-12-12--12-12----------------------|
A#|-----------------0--------------------|

Play Riff 7 x2
Play Riff 6 x4
Play Riff 7 x2
Play Riff 6 x4
Play Riff 7 x4

Fill 4
 C|-------------------------------------|
 G|-------------------------------------|
D#|-------------------------------------|
A#|------------10-----------------------|
 F|-/12-10-7-8----7~----/12-10-7-8-\-3~-|
A#|-------------------------------------|

Play Riff 4 x2   "Take you..."
Play Riff 5 x2   "Break you out of your habits..."

Riff 8
 C|-------------------------|
 G|-------------------------|
D#|-------------------------|
A#|--------7~-----------8~~-|
 F|-0-0--0-8~----0-0--0-10~-|
A#|-0-0--0-------0-0--0-----|
    * *  *       * *  *

Riff 8 repeats for the remainder of the song and fades out.

Enjoy!!
Добавлено: 18.09.2013
Другие материалы по этой песне:
  • Аккорды и текст

Страница создана 22.06.2012
http://primanota.ru/nonpoint/skin-chords.htm
Привет, Гость.
Предлагаем пройти революционный курс по гитаре.
Подарок от PrimaNota.Ru, забирай!