PrimaNota.ru - самый крупный в мире бесплатный архив песенных текстов, аккордов, табулатур и нот


Nonpoint - Pins And Needles - таба, видео

Регистрация Запомнить меня
Войти через:  Facebook Google Twitter Vk Yandex Mail.ru

Nonpoint - Pins And Needles - таба, видео

Печатать
Просмотров: 149
Уроки эстрадного вокала в Санкт-Петербурге
Nonpoint: Pins And Needles

Transcribed by: mysticguitar77

YouTube Channel: https://www.youtube.com/user/MysticGuitar77

Date last modified: February 7, 2015

Tuning: Drop C (C,G,C,F,A,D)

Riff 1
D|----------------------------------------------------------------------------------------|
A|----------------------------------------------------------------------------------------|
F|----------------------------------------------------------------------------------------|
C|----------------------------------------------------------------------------------------|
G|-----5-----8-----3-----5-----6-----3-----5-----8-----10-----12-----9-----10-----7-----9-|
C|-0-0---0-0---0-0---0-0---0-0---0-0---0-0---0-0---0-0----0-0----0-0---0-0----0-0---0-0---|
   * *   * *   * *   * *   * *   * *   * *   * *   * *    * *    * *   * *    * *   * *

D|--------------------------------------------|
A|--------------------------------------------|
F|--------------------------------------------|
C|--------------------------------------------|
G|-----5-----6-----3-----5-----6---5---8---6~-|
C|-0-0---0-0---0-0---0-0---0-0---0---0---0----|
   * *   * *   * *   * *   * *   *   *   *

Riff 2   "There's blood in the water..."
D|--------------------------------------------|
A|--------------------------------------------|
F|----------------------5/--------------------|
C|-12\-0--3-0-3/--0-3-0-5/--0-3-0-------3~----| 
G|-12\-0--3-0-3/--0-3-0-----0-3-0----1~----1~-|
C|-12\-0--3-0-3/--0-3-0-----0-3-0-1~----------|

Play Riff 2 x2   "Cause in a second I know you'll be circling..."

Riff 3   "Since the beginning of all this you've been problematic..."
D|-----------------------------------------------------------|
A|-----------------------------------------------------------|
F|-----------------------------------------------------------|
C|-3p0-0-0-3p0-0-5-0-0-0-0-3p0-0-7-0-0-0-0-3p0-0-------3~----|
G|-3p0-0-0-3p0-0-3-0-0-0-0-3p0-0-5-0-0-0-0-3p0-0----1~----1~-|
C|-3p0-0-0-3p0-0---0-0-0-0-3p0-0---0-0-0-0-3p0-0-1~----------|
       * *     *   * * * *     *   * * * *

Play Riff 3 x2   "Forget about all of the talking and lets get arguing..."

Fill 1
D|---------------------------------------------------------------------|
A|---------------------------------------------------------------------|
F|---------------------------------------------------------------------|
C|---------------------------------------------------------------------|
G|-----5-----8-----3-----5-----6-----3-----5-----8-----10-----12-12-12-|
C|-0-0---0-0---0-0---0-0---0-0---0-0---0-0---0-0---0-0----0-0----------|
   * *   * *   * *   * *   * *   * *   * *   * *   * *    * *

Play Riff 1 x2   "It's a crime to think that you weren't honest..."

Riff 4   "I'm standing on pins and needles..."
D|-------------------6---6--------------------------------------------|
A|-------------------6---6--------------------------------------------|
F|-7/8-8-8-8-8-10-10-10--10-8-8-8/10-10-10-10-10-10--10-10-10---------|
C|-7/8-8-8-8-8-8--8--8---8--8-8-8/10-10-10-10-10-10--10-10-10---------|
G|-5/6-6-6-6-6-6--6--6---6--6-6-6/8--8--8--8--8--8---8--8--8----------|
C|-----------------------------------------8--8--8---8--8--8--8\3-3-3-|

D|---------------------------------------------------------|
A|---------------------------------------------------------|
F|---------------------------------------------------------|
C|---------------------------------------------------------|
G|-----------------------------------------------------3ph-|
C|-3p0-0-0--0-0-0--0-0--0--0-0-0-0-0--0-0-0-0--0-0-0-x-----|

D|-------------------6---6--------------------------------------------|
A|-------------------6---6--------------------------------------------|
F|-7/8-8-8-8-8-10-10-10--10-8-8-8/10-10-10-10-10-10--10-10-10---------|
C|-7/8-8-8-8-8-8--8--8---8--8-8-8/10-10-10-10-10-10--10-10-10---------|
G|-5/6-6-6-6-6-6--6--6---6--6-6-6/8--8--8--8--8--8---8--8--8----------|
C|-----------------------------------------8--8--8---8--8--8--8\3-3-3-|

D|---------------------------------------------------------|
A|---------------------------------------------------------|
F|---------------------------------------------------------|
C|---------------------------------------------------------| x2
G|-----------------------------------------------------3ph-|
C|-3p0-0-0--0-0-0--0-0--0--0-0-0-0-0--0-0-0-0--0-0-0-x-----|

D|----------------|
A|----------------|
F|----------------|
C|-3p0-0-0--0-0-0-|
G|-3p0-0-0--0-0-0-|
C|-3p0-0-0--0-0-0-|
       *    * *

Fill 2
D|---------|
A|---------|
F|-7\---5/-|
C|-7\-3-5/-|
G|----3----|
C|----3----|

Play Riff 2 x2   "What are we waiting for..."
Play Riff 3 x2   "I'm ready already..."
Play Riff 1 x2   "It's a crime to think you weren't honest..."
Play Riff 4 x1   "I'm standing on pins and needles..."
Play Riff 1 x1   (solo rhythm)
Play Riff 4 x0.5 (solo rhythm)

Solo
D|--------------------------------------------------------------|
A|-------------------------------10~---10b11r10-8-7--7h8h10-8-7-|
F|--------7h8h10--------7h8p7-----------------------------------|
C|-7h8h10--------7h8h10-------10--------------------------------|
G|--------------------------------------------------------------|
C|--------------------------------------------------------------|

D|-10---10-11---8---8-10---11---10---10--14-14-14-14b15r14-11-14-11-10h11p10-----10--------|
A|----7-------7---7------7----7----7------------------------------------------11----11-10~-|
F|-----------------------------------------------------------------------------------------|
C|-----------------------------------------------------------------------------------------|
G|-----------------------------------------------------------------------------------------|
C|-----------------------------------------------------------------------------------------|

D|---------------------------------------------------------------------------------------------|
A|-10h11h13-11-10-11-10------------------------------------------------------------15h17h18-18-|
F|----------------------12-11-12-11---------------------------------------14h15h17-------------|
C|----------------------------------13-12~--12h13-13-13----------12h14h15----------------------|
G|------------------------------------------------------12h13h15-------------------------------|
C|---------------------------------------------------------------------------------------------|

D|---------------------------------------------------------------------------------|
A|-18-18-18b20r18-------------15----------11-10--13b15-----13b-13b-13b-13b-13b-13b-|
F|----------------17-14b16r14----10b12r10------------------------------------------|
C|---------------------------------------------------------------------------------|
G|---------------------------------------------------------------------------------|
C|---------------------------------------------------------------------------------|
                                                 ^ slow bend and hold it

Riff 5
D|---------------------------------------------------------|
A|---------------------------------------------------------|
F|---------------------------------------------------------|
C|---------------------------------------------------------|
G|-----0-0--0-0-0--0-0--0--0-0-0-0-0--0-0-0-0--0-0-0--3ph~-|
C|-3p0-0-0--0-0-0--0-0--0--0-0-0-0-0--0-0-0-0--0-0-0-------|
       * *  * * *  * *  *  * * * * *  * * * *  * * *

Play Riff 5 x2
Play Riff 4 x1   "I'm standing on pins and needles..."
Play Riff 3 x6   "Yeah!!"

Enjoy!!



         

         
Добавлено: 07.08.2015
Другие материалы по этой песне:
  • Аккорды и текст

Страница создана 07.08.2015
http://primanota.ru/nonpoint/pins-and-needles-chords.htm
Привет, Гость.
Предлагаем пройти революционный курс по гитаре.
Подарок от PrimaNota.Ru, забирай!