PrimaNota.ru - самый крупный в мире бесплатный архив песенных текстов, аккордов, табулатур и нот


Nonpoint - Pandoras Box - таба, видео

Регистрация Запомнить меня
Войти через:  Facebook Google Twitter Vk Yandex Mail.ru

Nonpoint - Pandoras Box - таба, видео

Печатать
Просмотров: 184
Nonpoint: Pandora's Box

Transcribed by: mysticguitar77

YouTube Username: MysticGuitar77

Date last modified: October 18, 2012

Tuning: Drop C (C,G,C,F,A,D)

Riff 1
D|----------------------------------------------------------------|
A|----------------------------------------------------------------|
F|----------------------------------------------------------------|
C|----------------------------------------------------------------|
G|-5--------------7-------5-------8--------------10-------8-------|
C|---0-0-0--0-0-0---0-0-0---0-0-0---0-0-0--0-0-0----0-0-0---0-0-0-|

D|----------------------------------------------------------------|
A|----------------------------------------------------------------|
F|----------------------------------------------------------------|
C|----------------------------------------------------------------|
G|-5--------------7-------5-------8--------------10-----10-----8~-|
C|---0-0-0--0-0-0---0-0-0---0-0-0---0-0-0--0-0-0----0-0----0-0----|
                                                    * *    * *

Riff 2   "Save your story for someone who cares..."
D|-----------------------|
A|-----------------------|
F|-----------------------|
C|-0-0-0-0-------0-0-0-0-|
G|-0-0-0-0-------0-0-0-0-|
C|-0-0-0-0-------0-0-0-0-|
   * * * *       * * * * 

Play Riff 2 x2

Riff 3   "Look at all of the damage you've done..."
D|--------------------------------------------------|
A|--------------------------------------------------|
F|---------7---------------9---------------10-------|
C|-0-0-0-0-x-(x12)-0-0-0-0-x-(x12)-0-0-0-0-x--(x12)-|
G|-0-0-0-0-5-------0-0-0-0-5-------0-0-0-0-5--------|
C|-0-0-0-0---------0-0-0-0---------0-0-0-0----------|
   * * * *         * * * *         * * * *

***(x12) is the number of times you play the chord that comes before it.***

D|---------------------------------|
A|---------------------------------|
F|---------------------------------|
C|-8-8-8-8-7-7-7-7-3-3-3-3-5-5-5-5-|
G|-8-8-8-8-7-7-7-7-3-3-3-3-5-5-5-5-|
C|-8-8-8-8-7-7-7-7-3-3-3-3-5-5-5-5-|

Riff 4   "Dream time's over and the nightmare has begun..."
D|----------------------------------------------------------------|
A|----------------------------------------------------------------|
F|----------------------------------------------------------------|
C|----------------------------------------------------------------|
G|-5--------------7-------5-------8--------------10-----10-----8~-|
C|---0-0-0--0-0-0---0-0-0---0-0-0---0-0-0--0-0-0----0-0----0-0----|
                                                    * *    * *

D|----------------------------------------------------------------|
A|----------------------------------------------------------------|
F|----------------------------------------------------------------|
C|----------------------------------------------------------------|
G|-------------------------------------------5-----3-----5-----3~-|
C|-3-3-3-3-x-3-x-x-3-3-3-3-2-2-2-2-3-3-3-3-3---0-0---0-0---0-0----|
                                           *   * *   * *   * *

Play Riff 4 x2   "Even if you ran around, picking up the pieces..."

Riff 5   "When's it gonna leave us?"
D|---------------------------------------------------------------|
A|---------------------------------------------------------------|
F|---------------------------------------------------------------|
C|---------------------------------------------------------------|
G|-5--------------7-------5-------5--------------7-------8-------|
C|---0-0-0--0-0-0---0-0-0---0-0-0---0-0-0--0-0-0---0-0-0---0-0-0-|

Riff 6   "Everything you wanted, your feelings are clear..."
D|------------------------------------|
A|------------------------10h11-11-11-|
F|---------------7/9-9/10-10----10-10-|
C|-0-0-0-0-7-7h8----------------------|
G|-0-0-0-0----------------------------|
C|-0-0-0-0----------------------------|
   * * * *

D|------------------------------------|
A|------------------------------------|
F|---------------7/9-9/10-10-9--9--9--|
C|-0-0-0-0-7-7h8----------10-10-10-10-|
G|-0-0-0-0----------------------------|
C|-0-0-0-0----------------------------|
   * * * *

D|------------------------------------|
A|------------------------10h11-11-11-|
F|---------------7/9-9/10-10----10-10-|
C|-0-0-0-0-7-7h8----------------------|
G|-0-0-0-0----------------------------|
C|-0-0-0-0----------------------------|
   * * * *

D|------------------------------------|
A|------------------------------------|
F|---------------7/9-9/10-10/12-12-12-|
C|-0-0-0-0-7-7h8----------------------|
G|-0-0-0-0----------------------------|
C|-0-0-0-0----------------------------|
   * * * *

Play Riff 3      "...lost without a clue..."
Play Riff 4 x2   "Dream time's over and the nightmare has begun..."

Riff 7   "You can try and save the days.."
D|-----------18"-17"-----------15"-13"-|
A|-----------x---x-------------x---x---|
F|-----------15"-14"-----------12"-10"-|
C|-7-8-8-8-8---------3-5-5-5-5---------|   " = tremolo pick and w/ wah
G|-7-8-8-8-8---------3-5-5-5-5---------|
C|-7-8-8-8-8---------3-5-5-5-5---------|

Riff 7 ending 1
D|---------------------------------------------------------|
A|---------------------------------------------------------|
F|---------------------------------------------------------|
C|-0-0-x-0-x-2-2-2-2-2-2-2-3-3-3-3-3-3-3-3-8-8-8-8-7-7-7-7-|
G|-0-0-x-0-x-2-2-2-2-2-2-2-3-3-3-3-3-3-3-3-8-8-8-8-7-7-7-7-|
C|-0-0-x-0-x-2-2-2-2-2-2-2-3-3-3-3-3-3-3-3-8-8-8-8-7-7-7-7-|

Play first half of Riff 7

Riff 7 ending 2
D|---------------------------------------------------------|
A|---------------------------------------------------------|
F|---------------------------------------------------------|
C|-0-0-x-0-x-2-2-2-2-2-2-2-3-3-3-3-3-3-3-3-8-------7-------|
G|-0-0-x-0-x-2-2-2-2-2-2-2-3-3-3-3-3-3-3-3-8-(x16)-7-(x16)-|
C|-0-0-x-0-x-2-2-2-2-2-2-2-3-3-3-3-3-3-3-3-8-------7-------|

***(x16) is the number of times to play the chord that comes before it.***

Play Riff 4 x2   "Dream times's over and the nightmare has begun..."

Riff 8   "When's it gonna leave us?"
D|--------------------------------------------------------------|
A|--------------------------------------------------------------|
F|--------------------------------------------------------------|
C|--------------------------------------------------------------|
G|-5--------------7-------5-------5--------------7-----7-----7~-| 
C|---0-0-0--0-0-0---0-0-0---0-0-0---0-0-0--0-0-0---0-0---0-0----|
                                                   * *   * *

D|------------------------------------------------------------------|
A|------------------------------------------------------------------|
F|------------------------------------------------------------------|
C|------------------------------------------------------------------|
G|-------------------------------------------5-----3-----5-----3ph~-|
C|-3-3-3-3-x-3-x-x-3-3-3-3-2-2-2-2-3-3-3-3-3---0-0---0-0---0-0------|
                                           *   * *   * *   * *

Enjoy!
Добавлено: 04.09.2013
Другие материалы по этой песне:
  • Аккорды и текст

Страница создана 04.09.2013
http://primanota.ru/nonpoint/pandoras-box-chords.htm
Привет, Гость.
Предлагаем пройти революционный курс по гитаре.
Подарок от PrimaNota.Ru, забирай!