PrimaNota.ru - самый крупный в мире бесплатный архив песенных текстов, аккордов, табулатур и нот


Nonpoint - Miracle - таба, видео

Регистрация Запомнить меня
Войти через:  Facebook Google Twitter Vk Yandex Mail.ru

Nonpoint - Miracle - таба, видео

Печатать
Просмотров: 112
Авторы: Kenneth Charman, Elias Soriano, Zach Broderick, Robb Rivera

Tuning: Drop C

Everything except solo

0:01 (Intro)  (Starts out palm muted          X4
d------------------------------------------------|
a------------------------------------------------|
f------------------------------------------------|
c------------------------------------------10-12-|
g-------------------------------------10-12------|
c-10-12-12-12-10-12-12-12-10-12-12-12------------|

0:11 (Not Muted)                             X4
d-----------------------------------------------|
a-----------------------------------------------|
f-----------------------------------------------|
c-----------------------------------------10-12-|
g------------------------------------10-12------|
c-10-12-12-12-10-12-12-12-10-12-12-12-----------|

0:21 (Verse 1)
d------------------------------------------------|
a------------------------------------------------|
f------------------------------------------------|
c------------------------------------------------|
g--------------------3-5---------------------3-5-|
c-3-5--6-5-3-0---5-7------3-5--6-5-3-0---5-7-----|

         Chords are palm muted              X2
d-----------------------------------------------|
a-----------------------------------------------|
f-----------------------------------------------|
c----------------------------------------0--0-0-|
g--------------------3-5-----------------0--0-0-|
c-3-5--6-5-3-0---5-7-------3-5--6-5-3-0--0--0-0-|

0:44 (Refrain)  You'll have listen for the strum pattern
d----------------|--------------------------|
a----------------|--------------------------|
f----------------|--------------------------|    X2
c-8--8-10---10-10|-0--0-0-0--5--1--3--0-----|
g-8--8-10---10-10|-0--0-0-0--5--1--3--0-----|
c-8--8-10---10-10|-0--0-0-0--5--1--3--0-----|

1:08 (Verse 2)         (Just as before)   X8  | 4th and 8th times add below
d-----------------|---------------------------|----------|
a-----------------|---------------------------|----------|
f-----------------|---------------------------|----------|
c-----------------|---------------------------|-0--0-0-0-|
g-----------------|--------------------3-5----|-0--0-0-0-|
c-3-5-5-5--6-5-3-0|--3-5--6-5-3-0--5-7--------|-0--0-0-0-|

1:32 Repeat refrain

1:58                 Pre-Solo                X4
d-----------------------------------------------|
a-----------------------------------------------|
f-----------------------------------------------|
c-----------------------------------------10-12-|
g------------------------------------10-12------|
c-10-12-12-12-10-12-12-12-10-12-12-12-----------|

2:08     once again listen for strumming patterns
d---------------------------------|
a---------------------------------|
f---------------------------------|       X4
c-0---0-0-0--0--0--0--0--0--------|
g-0---0-0-0--0--0--0--0--0--------|
c-0---0-0-0--0--0--0--0--0--------|

2:30 Acustic stuff i cant understand

2:40 Refrain (again)
d-------------------------------------------------------------|
a-------------------------------------------------------------|
f---------------------     X4     (Background for outro solo--|
c-0--0-0-0--5--1--3--0----------------------------------------|
g-0--0-0-0--5--1--3--0----------------------------------------|
c-0--0-0-0--5--1--3--0----------------------------------------|

This is my first tab, so E-Mail Me at: Blondzilla93@yahoo.com, let me know if i 
got anything wrong.
Добавлено: 24.06.2012
Другие материалы по этой песне:
  • Аккорды и текст

Страница создана 24.06.2012
http://primanota.ru/nonpoint/miracle-chords.htm
Привет, Гость.
Предлагаем пройти революционный курс по гитаре.
Подарок от PrimaNota.Ru, забирай!