PrimaNota.ru - самый крупный в мире бесплатный архив песенных текстов, аккордов, табулатур и нот


Nonpoint - Lights Camera Action - таба, видео

Регистрация Запомнить меня
Войти через:  Facebook Google Twitter Vk Yandex Mail.ru

Nonpoint - Lights Camera Action - таба, видео

Печатать
Просмотров: 407
Уроки эстрадного вокала в Санкт-Петербурге
Nonpoint: Lights, Camera, Action

Transcribed by: mysticguitar77

YouTube Username: MysticGuitar77

Date last modified: October 16, 2012

Tuning: Drop C (C,G,C,F,A,D)

Riff 1   "Light up the room with a little more light!"
D|-------------------------|
A|-------------------------|
F|-------------------------|
C|-0-3-0-5p3-3-0-3-0-6p3-0-|
G|-0-3-0-5p3-3-0-3-0-6p3-0-|
C|-0-3-0-5p3-3-0-3-0-6p3-0-|
     * *       * * * 

Play Riff 1 x3   "Lights, camera, action..."

Riff 1a
D|--------------------------|
A|--------------------------|
F|--------------------------|
C|-0-3-0-5p3-3-0-3-0-6p3-5*-|
G|-0-3-0-5p3-3-0-3-0-6p3----|
C|-0-3-0-5p3-3-0-3-0-6p3----|

Riff 2   "...can't decide, got a fever!"
D|-------------------------------------------------------|
A|-------------------------------------------------------|
F|-------------------------------------------------------|
C|-0-3-0-5p3-3-0-3-0-6p3-0-0-3-0-5p3-3-0-3-0-6--3--1--0~-|
G|-0-3-0-5p3-3-0-3-0-6p3-0-0-3-0-5p3-3-0-3-0-6--3--1--0~-|
C|-0-3-0-5p3-3-0-3-0-6p3-0-0-3-0-5p3-3-0-3-0-6--3--1--0~-|
                                             *  *  *  *

Riff 3   "...standin' in a club..."
D|-------------------------------------|
A|-------------------------------------|
F|-------------------------------------|
C|-------------------------------------|
G|----------------------------------0~-|
C|-0-3-3-0-5-3-0-3~-0-3-0-6-3-0-3-0-0~-|
   * * * * * * *    * * * * * * * * *

D|--------------------------------|
A|--------------------------------|
F|--------------------------------|
C|--------------------------------|
G|--------------------------------|
C|-0-3-3-0-5-3-0-3~-0-3-0-6-3-0-3-|
   * * * * * * *    * * * * * * *

Play Riff 1 x3 (without palm mutes)

Riff 1b   "'bout your clothes, 'bout your wife!"
D|--------------------------|
A|--------------------------|
F|--------------------------|
C|-1-0-0-0-1-0--1-0-0-0-1-0-|
G|-1-0-0-0-1-0--1-0-0-0-1-0-|
C|-1-0-0-0-1-0--1-0-0-0-1-0-|

Riff 4   "Lights, camera, action!"
D|-------------------------------------------------------------------------|
A|-------------------------------------------------------------------------|
F|-3~-----5~---------------------------------------------------------------|
C|-3~-----5~---------------------------------------------------------------|
G|-1~-----3~---------------------------------------------------------------|
C|---------------0-0--0-0--0-0--0-3-0-2-3-2-0-0-0--0-0--0-0--0-3-0-2-3-2-0-|
          ^ (end with this chord 3rd time)

Play Riff 4 x3   "Looking for a chain to the chain reaction!"
Play Riff 1 x5   (last time through play without palm mutes, but
                  palm mute the last open chord and let ring)
Play Riff 4 x3   "Lights, camera, action!"
Play Riff 1 x8   (without palm mutes)

Guitar 2 plays this during this part underneath:
D|-10'-|
A|-x---|
F|-7'--|
C|-----|   Just repeats over and over
G|-----|
C|-----|

Riff 5   "Light up the world with a little more truth..."
D|----------------------------------------|
A|---5~------6~----3~----5~------6~----5~-|
F|----------------------------------------|
C|----------------------------------------| subtle phaser on this part
G|-5-------6-----3-----5-------6-----5----|
C|----------------------------------------|

D|------------------------------------------------------------|
A|---5---------------6~----3~----5---------------6~----3~--5~-|
F|------------------------------------------------------------|
C|-----7---7---7-------------------7---7---7------------------|
G|-5-----5---5---5-6-----3-----5-----5---5---5-6-----3-----5~-|
C|------------------------------------------------------------|

Riff 5 note: Let all notes ring out.

Play Riff 4 x3   "Lights, camera, action!"

Play Riff 1 x3   (without palm mutes)

Riff 1d
D|--------------------------|
A|--------------------------|
F|--------------------------|
C|-0-3-0-5p3-3-0-0-0-0-0-5*-|
G|-0-3-0-5p3-3-0-0-0-0-0----|
C|-0-3-0-5p3-3-0-0-0-0-0----|
               * * * * *

Play Riff 1 x2   "Lights, camera, action!"

Enjoy!
Добавлено: 06.09.2013
Другие материалы по этой песне:

Страница создана 06.09.2013
http://primanota.ru/nonpoint/lights-camera-action-chords.htm
Привет, Гость.
Предлагаем пройти революционный курс по гитаре.
Подарок от PrimaNota.Ru, забирай!