PrimaNota.ru - самый крупный в мире бесплатный архив песенных текстов, аккордов, табулатур и нот


Nonpoint - I Said It - таба, видео

Регистрация Запомнить меня
Войти через:  Facebook Google Twitter Vk Yandex Mail.ru

Nonpoint - I Said It - таба, видео

Печатать
Просмотров: 192
Авторы: Adam Woloszyn, Elias Soriano, Dave Lizzio, Rasheed Thomas, Robb Rivera

Nonpoint: I Said It

Transcribed by: mysticguitar77

YouTube Username: MysticGuitar77

Date last modified: September 12, 2012

***UPDATE***9/12/12: Just put in some finishing touches and fixed one note
                     in the chorus.

Tuning: Drop C (C,G,C,F,A,D)

Riff 1   "I said it once and I'll say it again..."
D|--------------------------------------------|
A|--------------------------------------------|
F|--------------------------------------------|
C|--------------------------------------------|
G|-0-0-0--0-7--0-5-0--3----0-0--0-7--0-5-0--3-|
C|-0-0-0--0-7--0-5-0--3----0-0--0-7--0-5-0--3-|

D|----------------------------------------------|
A|----------------------------------------------|
F|----------------------------------------------|
C|----------------------------------------------|
G|-0-0-0--0-7--0-5-0--3-3-3--0-0--0-7--0-5-0--3-|
C|-0-0-0--0-7--0-5-0--3-3-3--0-0--0-7--0-5-0--3-|

Play Riff 1 x2

Riff 2   "I said it, I said it..."
D|----------------------------------------------------------------|
A|----------------------------------------------------------------|
F|----------------------------------------------------------------|
C|----------------------------------------------------------------|
G|--------------------------3h5-------------------------0-0-0-0-0-|
C|-0-0-7-6--0-6-5--0-5-3--0-----0-0-7-6---0-6-5--0-5-3--0-0-0-0-0-|
                                                        * * * * *

D|-----------------------------------------------------------|
A|-----------------------------------------------------------|
F|-----------------------------------------------------------|
C|-----------------------------------------------------------|
G|----------------------3h5------3-----3-----3---------5-5-5-|
C|-7-6--0-6-5--0-5-3--0------0-0---0-0---0-0---0-0-0-0-------|
                             * *   * *   * *   * * * *

D|----------------------------------------------------|
A|----------------------------------------------------|
F|----------------------------------------------------|
C|--------------------------5/7-----------------------|
G|-0-0-7-6--0-6-5--0-5-3--0-3/5-0-0-7-6--0-6-5--0-5-3-|
C|-0-0-7-6--0-6-5--0-5-3--0-----0-0-7-6--0-6-5--0-5-3-|

D|---------------------------------------------------------------|
A|---------------------------------------------------------------|
F|---------------------------------------------------------------|
C|--------------------------5/7------5-----5-----5---------7-7-7-|
G|-0-0-7-6--0-6-5--0-5-3--0-3/5--0-0-3-0-0-3-0-0-3-0-0-0-0-5-5-5-|
C|-0-0-7-6--0-6-5--0-5-3--0------0-0---0-0---0-0---0-0-0-0-------|
                                 * *   * *   * *   * * * *

Play Riff 2 x1
Play Riff 1 x2   "I didn't like you from the start..."

Fill before chorus:
D|-------|
A|-------|
F|-------|
C|-9*b10-|
G|-------|
C|-------|

* = pinch harmonic and bend it 1/2 step

Play Riff 2 x1  "I said it, I said it..."

Riff 3
D|-----------------------------------------------|
A|-----------------------------------------------|
F|-----------------------------------------------|
C|-----------------------------------------------|
G|-00000--00000--------------------1---3---1-1-1-|
C|-00000--00000----003-0-5-0-0-1-0---0---0-1-1-1-|
   ****   ****

D|-----------------------------------------------|
A|-----------------------------------------------|
F|-----------------------------------------------|
C|---------------------------------3---5---------|
G|-00000--00000----0-3-0-5-0-0-3-0---0---0-6-6-6-|
C|-00000--00000----------------------------------|
   ****   ****

D|--------------------------------------------------------|
A|--------------------------------------------------------|
F|--------------------------------------------------------|
C|------------------------------------------3---5---------|
G|-00000--00000----1p0-1p0--0-3-0-5-0-0-3-0---0---0-6-6-6-|
C|-00000--00000-------------------------------------------|
   ****   ****

D|----------------------------------------------------------|
A|----------------------------------------------------------|
F|---------------------------------------------------10*b12-|
C|----------------------------------------------------------|
G|-0000000000----8888888888----1p0-1p0-0000000000-----------|
C|-0000000000----8888888888------------0000000000-----------|
   *********     *********             ********* 

This part has a little phaser on it:
D|----------------------------|
A|----------------------------|
F|-----------------------7----|
C|-0-3-0-5-0-0-1-0-5-7-8---7~-|
G|----------------------------|
C|----------------------------|

Riff 4   "Unofficial body crying unofficial blues..."
D|-------------11-11---11-11---------------11-11---11-11-|
A|-------------x--x----x--x----------------x--x----x--x--|
F|-------------8--8----8--8----------------8--8----8--8--|
C|-------------------------------------------------------|
G|-0-0---0-0-------------------0-0---0-0-----------------|
C|-0-0---0-0-------------------0-0---0-0-----------------|

D|-------------11-11---11-11-------------|
A|-------------x--x----x--x--------------|
F|-------------8--8----8--8--------------|
C|---------------------------------------|
G|-0-0---0-0-------------------0-0---0-0-|
C|-0-0---0-0-------------------0-0---0-0-|

D|-----------------|
A|-----------------|
F|-----------------|
C|-----------------|
G|-0-0-0-0-0-0-0-0-|
C|-0-0-0-0-0-0-0-0-|
   * * * * * * * *

Play Riff 2 x1   "I said it, I said it..."

Riff 5    "I said it, I said it..."
D|-----------|
A|-----------|
F|-----------|
C|-----------|
G|-0-0---0-0-|
C|-0-0---0-0-|

Play Riff 5 x4    "...now you've started a fucking war!"

Enjoy!
Добавлено: 12.07.2013
Другие материалы по этой песне:
  • Аккорды и текст

Страница создана 12.07.2013
http://primanota.ru/nonpoint/i-said-it-chords.htm
Привет, Гость.
Предлагаем пройти революционный курс по гитаре.
Подарок от PrimaNota.Ru, забирай!