PrimaNota.ru - самый крупный в мире бесплатный архив песенных текстов, аккордов, табулатур и нот


Nonpoint - Frontlines - таба, видео

Регистрация Запомнить меня
Войти через:  Facebook Google Twitter Vk Yandex Mail.ru

Nonpoint - Frontlines - таба, видео

Печатать
Просмотров: 200
Nonpoint: Frontlines

Transcribed by: mysticguitar77

YouTube Username: MysticGuitar77

Date last modified: September 8, 2012

Tuning: Drop C (C,G,C,F,A,D)

Riff 1 (clean)
D|----5---------------------------|
A|------6---8-----6-----5-----6---|
F|--------7---7-----7-----7-----7-|
C|--------------0-----0-----0-----|
G|--------------------------------|
C|-0------------------------------|

Play Riff 1 x2

Riff 1a
D|-------0-------------0-------------0-------0~-|
A|---6-----6---6---6-----6---6---6-----6---6-6~-|
F|-----7-----7-------7-----7-------7-----7---7~-|
C|-8-------------8-------------8-------------8~-|
G|----------------------------------------------|
C|----------------------------------------------|

Play Riff 1 x2   "Took my life just to see it..."
Play Riff 1a     "Things that you'll never know..."
Play Riff 1 x2   "Tried every piece of the puzzle..."
Play Riff 1a     "I'm still as dry as a bone..."

Riff 2    "I can't wait until they feel the pain..."
D|---------3---------------3---------------1-------1~-|
A|-----------3---3-----------3---3-----------1---1-1~-|
F|-----5-------5-------5-------5-------3-------3---3~-|
C|---5---5-----------5---5-----------3---3---------3~-|
G|-3---------------3---------------1---------------1~-|
C|----------------------------------------------------|

Riff 3    "On the frontlines, fighting for my life..."
D|------------5--5-5-5-5-5--5-5-5-|
A|------------3--3-3-3-3-3--3-3-3-|
F|------------2--2-2-2-2-2--2-2-2-|
C|------0-0-0-0--0-0-0-0-0--0-0-0-|
G|-0--0-0-0-0-0--0-0-0-0-0--0-0-0-|
C|-0--0-0-0-0-0--0-0-0-0-0--0-0-0-|

Play Riff 3 x2   "On the frontlines..."
Play Riff 2 x1   "Knowing tomorrow, I may not be alive..."
Play Riff 3 x2   "On the frontlines, fighting for my life..."
Play Riff 2 x1   "...fighting for your life..."

Riff 2 ending alteration (play this chord instead of the other one)
D|----|
A|----|
F|-2~-|
C|-2~-|
G|-0~-|
C|----|

Riff 4
D|-------------------------------|
A|--------8--8-8-----------------|
F|--------7--7-7-----------------|
C|--------5--5-5-----0-------0---|
G|-----------------0---0---0---0-|
C|-0--0-0--------3-------2-------|

Play Riff 4 x2

Riff 4a
D|-------5-------------5-------|
A|-----6---6---6-----6---6---6-|
F|---7-------7-----7-------7---|
C|-8-------------8-------------|
G|-----------------------------|
C|-----------------------------|

Play Riff 4a x2
Play Riff 4  x2   "Standing tall for your freedom..."
Play Riff 4a x2   "Choosing right over wrong..."
Play Riff 4  x2   "Underneath all the reasons..."
Play Riff 4a x2   "Just to keep you alive..."
Play Riff 2       "I can't wait until they feel the pain..."

Riff 5 (distortion)   "On the frontlines, fighting for my life!"
D|--------------------------------------------------------------|
A|--------------------------------------------------------------|
F|-11---12---14--14-14-14-14-----11---12---14--14-14-14---------|
C|-x----x----x---x--x--x--x------x----x----x---x--x--x----------|
G|-9----10---12--12-12-12-12-x-x-9----10---12--12-12-12-0-0-0-0-|
C|-0--0-0--0-0---0--0--0--0--x-x-0--0-0--0-0---0--0--0--0-0-0-0-|
                                                        * * * *

D|--------------------------------------------------|
A|--------------------------------------------------|
F|-5--5-5-5-5--5-5-5-5-5-5-5-3--3-3-3-3--3-3-2-2--2-|
C|-5--5-5-5-5--5-5-5-5-5-5-5-3--3-3-3-3--3-3-2-2--2-|
G|-3--3-3-3-3--3-3-3-3-3-3-3-1--1-1-1-1--1-1-0-0--0-|
C|--------------------------------------------------|

Play Riff 5 x2   "On the frontlines, fighting for my life!"

Solo Backing
D|------------------------------------------|
A|------------------------------------------|
F|------------------------------------------|
C|----------------------3-------------------|
G|-0--x-x-0--x-x-0--x-x-1--x-x-5--x-x-5-5-5-|
C|-0--x-x-0--x-x-0--x-x----x-x-5--x-x-5-5-5-|

D|--------------------------------------------------|
A|--------------------------------------------------|
F|--------------------------------------------------|
C|----------------------3-3-3-3-3-3---------5-5-5-5-|
G|-0--x-x-0--x-x-0--x-x-1-1-1-1-1-1-5-5-5-5-3-3-3-3-|
C|-0--x-x-0--x-x-0--x-x-------------5-5-5-5---------|
                        * * * * * * * * * *

D|---------------------------------------------|
A|---------------------------------------------|
F|---------------------------------------------|
C|----------------------3--------------5-5-5-5-|
G|-0--x-x-0--x-x-0--x-x-1--x-x-5-5-5-5-3-3-3-3-|
C|-0--x-x-0--x-x-0--x-x----x-x-5-5-5-5---------|

Solo
D|-10-----12-----13----15-----17-----21b22---21b22~-|
A|-13b15--15b17--16b18-18b20--20b22-----------------|
F|--------------------------------------------------|
C|--------------------------------------------------|
G|--------------------------------------------------|
C|--------------------------------------------------|

This run here is awesome:
D|----------------------------------------------------|
A|-18-17-15-17-15----15-------------------------------|
F|----------------17----17-15-17-15-14-15-14-12-14-12-|
C|----------------------------------------------------|
G|----------------------------------------------------|
C|----------------------------------------------------|

D|---------------------------------------------|
A|---------------------------------------------|
F|----12---------------------------------------|
C|-15----15-14-15-14----12\---/3-5-5phb6r5-3---|
G|-------------------15----------------------5-|
C|---------------------------------------------|

D|------------------------------|
A|-----------------10b11--------|
F|-------5---------10b11--------|
C|-5-6-7---7-6-5-0-------12-12\-|
G|------------------------------|
C|------------------------------|
   * * * * * * * *

D|-13p10-12p10-------13p10-12p10-------13p10-12p10-------|
A|-------------13p10-------------13p10-------------13p10-|
F|-------------------------------------------------------|
C|-------------------------------------------------------|
G|-------------------------------------------------------|
C|-------------------------------------------------------|

D|-13p10-12p10----------15b17-13----17b19-15----|
A|-------------13p10-10----------15----------18-|
F|----------------------------------------------|
C|----------------------------------------------|
G|----------------------------------------------|
C|----------------------------------------------|

D|----------17-18----18-20-22b24---22b24~-|
A|-17-18-20-------20----------------------|
F|----------------------------------------|
C|----------------------------------------|
G|----------------------------------------|
C|----------------------------------------|

(Rhythm Guitar begins to play Riff 5 which is played twice)

Lead Guitar plays:
D|-------------------------------------------------|
A|-13-------13-------13-------13-------13----------|
F|----12-12----12-12----12-12----12-12----12-12-12-|
C|-------------------------------------------------|
G|-------------------------------------------------|
C|-------------------------------------------------|

D|----------------------------------------------|
A|-11-------11-------11-------11-------10-------|
F|----10-10----10-10----10-10----10-10----9-9-9-|
C|----------------------------------------------|
G|----------------------------------------------|
C|----------------------------------------------|

D|----------------------------------------|
A|-13~--13/15~--15\13-13~--13/15~--15\13~-|
F|----------------------------------------|
C|----------------------------------------|
G|----------------------------------------|
C|----------------------------------------|

D|-------------------------------------------------|
A|-13-------13-------13-------13-------13----------|
F|----12-12----12-12----12-12----12-12----12-12-12-|
C|-------------------------------------------------|
G|-------------------------------------------------|
C|-------------------------------------------------|

D|-------------------------------------------------|
A|-11-------11-------11-------11-------10----------|
F|----10-10----10-10----10-10----10-10----9-9-9----|
C|----------------------------------------------0~-|
G|----------------------------------------------0~-|
C|----------------------------------------------0~-|

Rhythm guitar also ends with the open C chord and just let that ring out.
Добавлено: 30.08.2013
Другие материалы по этой песне:
  • Аккорды и текст

Страница создана 30.08.2013
http://primanota.ru/nonpoint/frontlines-chords.htm
Привет, Гость.
Предлагаем пройти революционный курс по гитаре.
Подарок от PrimaNota.Ru, забирай!